Oops, an error
Loading. Please wait.

Momma Dont Get Dressed Up Tab

832 views 1 this week
no commentswrite comment
1 2 3 4 5
please rate
add to favorites
launch autoscroll
font size
0
reset
how to read this tab
guitar tuner
Tab Pro tools
  • play this tab
  • loop segment
  • change instrument
  • show fretboard
  • metronome
×
Best way to learn
"Momma Dont Get Dressed Up"
Autoscroll
slow
fast
+/-
esc
set tempo
stop
Contributor
Tabbers playing skills
advanced +
-------------------------------------------------------------------------------
                  Momma don't get dressed up for nothin - Brooks and Dunn
-------------------------------------------------------------------------------
Tabbed by:Damian Mc
Email:mclemoredamian@yahoo.com

Tuning:EADGbe     Key of A
Here is the intro and main Riff through the song
2x intro
e|--------------------------------------------------------------------------|
B|------------8-8-8-8-7------------------8-8-8-8-7--------------------------|
G|------2-----7-7-7-7-7--5~--------5-----7-7-7-7-7-------5------------------|
D|------2-------------------7--5h7---7---------------5h7-------5------------|
A|------0--------------------------------------------------5h7----3^p0------|
E|-0-3^---------------------------------------------------------------------
|
| /  slide up
| \  slide down
| h  hammer-on
| p  pull-off
| ~  vibrato
| +  harmonic
| x  Mute note
===============================================================================
comments
We did not receive enough feedback on this tab! Please rate:
print report bad tab
1 2 3 4 5
I want to post or [tab]
guest
You may want to rate the tab now too:
select rating
Please do not post tabs as comments. Select "correction" instead!