Oops, an error
Loading. Please wait.

Play Something Country Tab

version 1
version 1

Whole song

Interactive

16,259 views 39 this week
1 commentread comment
1 2 3 4 5
excellent!
x 9
add to favorites
launch autoscroll
font size
0
reset
how to read this tab
guitar tuner
Tab Pro tools
  • play this tab
  • loop segment
  • change instrument
  • show fretboard
  • metronome
×
Best way to learn
"Play Something Country"
Autoscroll
slow
fast
+/-
esc
set tempo
stop
Contributor
Difficulty
novice
Artist: Brooks & Dunn
Song: Play Something Contry
Album: Hillbilly Deluxe
Tuning: Standard
Difficulty: Novice

The chords are pretty repetitive but its the best sounding... I just kind of pick around 
chords. The guitar in the song is very quiet during the verse... So just use your 
like a drum a little. But, you're the one playing. You decide.

Intro

|---------------------------------|
|---------------------------------|
|-3-5s7-7-5-3-5s7-5-3-5-7-5-3-5s7-|
|5--------------------------------|
|---------------------------------|
|---------------------------------|

|---------------------------------|
|---------------------------------|
|-3-5s7-7-5-3-5s7-5-3-5-7-5-353---|
|5-----------------------------5--|
|---------------------------------|
|---------------------------------|

G
Yes, she blew through the door like TNT,
G
Put her hand on her hip, pointed a finger
at me.
G
Said: "I'm a whiskey drinkin', cowboy chasin', helluva time.
G
"I like Kenny, Keith, Allan and Patsy Cline.
C
"I'm a full grown Queen Bee lookin' for honey.
G
"Ha-ooh-hoo, aw, play somethin' country."

Yeah, the band took a break,
The DJ played P Diddy.
She said: "I didn't come here to hear,
"Somethin' thumpin' from the city."
Said: "I, I shaved my legs, I paid my money.
"Ha-ooh-hoo, play somethin' country.
"Ha-ooh-hoo, aw, play somethin' country."

C
Crank up the band, play the steel guitar.
G
Hank it up a little, let's rock this bar.
C
Threw back a shot; yelled: "I'm a George Strait junkie.
G
"Ha-ooh-hoo, play somethin' country.
G
"Ha-ooh-hoo, aw, play somethin' country."

Intro x1

Yeah, the bartender yelled:"Y'all, it's closin' time."
She got this wild look on her face,
An' said: "Your truck or mine,
"I know a place down the road,
"It's kinda funky.
"Ha-ooh-hoo, all out in the country.
"Ha-ooh-hoo, now, play somethin' country."

Crank up the band, play the steel guitar.
Hank it up a little, let's rock this bar.
Threw back a shot; yelled: "I'm a George Strait junkie.
"Ah-ooh-hoo, play somethin' country.
"Ha-ooh-hoo, now, play somethin' country."

Solo..? not sure about the solo

Crank up the band, play the steel guitar.
Hank it up a little, let's rock this bar.
Threw back a shot; yelled: "I'm a George Strait junkie.
"Ah-ooh-hoo, play somethin' country.
"Ha-ooh-hoo, play somethin' country."
comments
print report bad tab
1 comment total.
-1 reply
tmonahan23 wrote on December 10 2013, 03:22 pm

|---------------------------------|
|---------------------------------|
|-3-5s7-7-5-3-5s7---3-5-7-5-3-5s7-|
|5----------------5----------------|
|---------------------------------|
|---------------------------------|

|---------------------------------|
|---------------------------------|
|-3-5s7-7-5-3-5s7---3-5-7-5-353---|
|5----------------5------------5--|
|---------------------------------|
|---------------------------------|

I'd also change that 353 to a 5p3. Good work!

I want to post or [tab]
guest
You may want to rate the tab now too:
select rating
Please do not post tabs as comments. Select "correction" instead!