Oops, an error
Loading. Please wait.

Red Dirt Road Tab

version 3
version 3

Solo

Whole song

12,343 views 6 this week
no commentswrite comment
1 2 3 4 5
accurate
x 4
add to favorites
launch autoscroll
font size
0
reset
how to read this tab
guitar tuner
Tab Pro tools
  • play this tab
  • loop segment
  • change instrument
  • show fretboard
  • metronome
Autoscroll
slow
fast
+/-
esc
set tempo
stop
Contributor
Difficulty
intermediate
-------------------------------------------------------------------------------
                             RED DIRT ROAD - Brooks & Dunn
-------------------------------------------------------------------------------
Tabbed by: stag8603
Email: stag8603@gmail.com

Email me with questions!!!!

Tuning: standard


Intro

e|---------------------------------------------------------------------------|
B|---6---5---6---8---6---5-------5---6---------------------------------------|
G|---5---5---5---5---5---5---5---5---5---------------------------------------|
D|---------------------------------------------------------------------------|
A|---------------------------------------------------------------------------|
E|---------------------------------------------------------------------------|


For these parts of the song, it sounds best to play with a slide. If you don't wish to 
that, just bend the notes where a slide is.

After the 1st chorus

e|---------------------------------------------------------------------------|
B|---11/13--10--8/10/8-------------------------------------------------------|
G|----------------------10---------------------------------------------------|
D|---------------------------------------------------------------------------|
A|---------------------------------------------------------------------------|
E|---------------------------------------------------------------------------|


After the 2nd chorus

e----------------------------------------------------------------------------|
B---11/13--10--8/10\8------10--10/11--10\8--6/8\6----------------------------|
G----------------------10----------------------------------------------------|
D----------------------------------------------------------------------------|
A----------------------------------------------------------------------------|
E----------------------------------------------------------------------------|

e----------------------------------------------------------------------------|
B----11/13--10--13--13--13/15--15--15--15/18--18--18/20--22------------------|
G----------------------------------------------------------------------------|
D----------------------------------------------------------------------------|
A----------------------------------------------------------------------------|
E----------------------------------------------------------------------------|


Outro

e----------------------------------------------------------------------------|
B---11/13--10--8/10\8-------10--10/11--10\8--6/8\6---------------------------|
G----------------------10----------------------------------------------------|
D----------------------------------------------------------------------------|
A----------------------------------------------------------------------------|
E----------------------------------------------------------------------------|

e----------------------------------------------------------------------------|
B---11/13--10--13--13--13/15--15--15--15/18--18/20\18------------------------|
G----------------------------------------------------------------------------|
D----------------------------------------------------------------------------|
A----------------------------------------------------------------------------|
E----------------------------------------------------------------------------|


| /  slide up
| \  slide down
| h  hammer-on
| p  pull-off
| ~  vibrato
| +  harmonic
| x  Mute note
===============================================================================
comments
print report bad tab
I want to post or [tab]
guest
You may want to rate the tab now too:
select rating
Please do not post tabs as comments. Select "correction" instead!