Oops, an error
Loading. Please wait.

Uncle Sam Goddamn bass

4,374 views 1 this week
2 commentsread comments
1 2 3 4 5
x 4
add to favorites
×
Save as Personal and add changes to this tab that will be seen only by you. Learn more ›
×
You can save this tab as Personal to edit and correct it or add notes. All changes will be seen only by you. Learn more »
launch autoscroll
font size
0
reset
guitar tuner
edit
Autoscroll
slow
fast
+/-
esc
set tempo
stop
Standard tuning, maybe 1/4 step flat

Intro riff                          Lead in ('come on')
G|----------7-5h7------------7-5---I--------------------|
D|0-----0----------0-----0------75-I-0...----5-5-5--53--|
A|---------------------------------I------------------5-|
E|---------------------------------I--------------------|

Verse - repeat this till the end
G|---------------------------------------------------------------------------|
D|------4-----42--------4-----42--------4-----42--------4-----42-------------|
A|--------------4---------------4---------------4---------------4------------|
E|3---------------2---------------2---------------2--------------------------|

Brother Ali's website: http://www.brotherali.com

            
            
Suggest correction
Creating personal tab
Creating personal tab
You can edit any tab online and save it as your Personal.

You can edit, replace or remove any tab part or add personal notes – all changes will be seen only by you.

Personal tabs can be accessed anytime from any device, even offline.
Learn more »
comments
print report bad tab
2 comments total.
0 reply
bombasstic 80 Nov 07, 2012 02:13 AM

I think there's another note on the 3rd fret of the A string during the "walkdown" during the verse - so it would go something like this:
--------
--53----
----53--
------3-

other than that really good tab, nice to see somebody's tabbing some brother ali tunes!

+1 reply
bluemathrecruit 10 Apr 03, 2015 06:39 AM

Listen to the track for timing.

Intro Lead into Main Riff
G|----------7-5-5h7----------7-5---I--------------------|
D|0-----0----------0-----0------75-I-0...----4-4-4--42--|
A|---------------------------------I------------------4-|
E|---------------------------------I--------------------|

Main Riff*
G|--------------------------------------------------------------------------|
D|------4---4h2--------4---4h2--------4-----4h2--------4-----42-------------|
A|-------------4(h2)----------4(h2)-------------4(h2)---------------4-------¦
E|2------------------2-------------2----------------2-----------------------¦

*The hammer-ons on the A string are optional. Just stick them in whenever/ if ever ya feel like it...

-Sophie

guest
You may want to rate the tab now too:
select rating
Wanna post a correction for this tab? Suggest correction