Oops, an error
Loading. Please wait.

Uncle Sam Goddamn Bass Tab

4,032 views 1 this week
2 commentsread comments
1 2 3 4 5
please rate
add to favorites
launch autoscroll
font size
0
reset
guitar tuner
Autoscroll
slow
fast
+/-
esc
set tempo
stop
Help us to improve Ultimate-Guitar.com Take our survey!
×
Author
Difficulty
novice
Standard tuning, maybe 1/4 step flat

Intro riff                          Lead in ('come on')
G|----------7-5h7------------7-5---I--------------------|
D|0-----0----------0-----0------75-I-0...----5-5-5--53--|
A|---------------------------------I------------------5-|
E|---------------------------------I--------------------|

Verse - repeat this till the end
G|---------------------------------------------------------------------------|
D|------5-----53--------5-----53--------5-----53--------5-----53-------------|
A|--------------5---------------5---------------5---------------5------------|
E|3---------------3---------------3---------------3--------------------------|

Brother Ali's website: http://www.brotherali.com
Suggest correction
Give kudos to tab author, rate the tab!
1 2 3 4 5
comments
print report bad tab
2 comments total.
0 reply
bombasstic 80 wrote on November 7 2012, 07:13 am

I think there's another note on the 3rd fret of the A string during the "walkdown" during the verse - so it would go something like this:
--------
--53----
----53--
------3-

other than that really good tab, nice to see somebody's tabbing some brother ali tunes!

0 reply
bluemathrecruit 10 wrote on April 3 2015, 10:39 am

Listen to the track for timing.

Intro Lead into Main Riff
G|----------7-5-5h7----------7-5---I--------------------|
D|0-----0----------0-----0------75-I-0...----4-4-4--42--|
A|---------------------------------I------------------4-|
E|---------------------------------I--------------------|

Main Riff*
G|--------------------------------------------------------------------------|
D|------4---4h2--------4---4h2--------4-----4h2--------4-----42-------------|
A|-------------4(h2)----------4(h2)-------------4(h2)---------------4-------¦
E|2------------------2-------------2----------------2-----------------------¦

*The hammer-ons on the A string are optional. Just stick them in whenever/ if ever ya feel like it...

-Sophie

guest
You may want to rate the tab now too:
select rating
Wanna post a correction for this tab? Suggest correction