Oops, an error
Loading. Please wait.

Got No Shame Tab

5,873 views 21 this week
1 commentread comment
1 2 3 4 5
x 3
add to favorites
launch autoscroll
font size
0
reset
how to read this tab
guitar tuner
×
Best way to learn
"Got No Shame"
Autoscroll
slow
fast
+/-
esc
set tempo
stop
http://www.damonjohnson.com

Got No Shame
**Tune Down Half Step**
One of my favorite songs live and not too hard to play.
There is a ton of fret sliding to make this song sound 
right. 

p.m. =  palm mute
~    =  vibrato (shake note as if with whammy bar)
+    =  bend for appropiate pitchshifts
h    =  hammer on following note then release back to original
/    =  slide fret fingers to next  note

Intro
            A    C    D    C  D  C
|-------------------------------------|
|-------------------------------------|
|-14/2-2--2-2-2--5-7--7-7--5-7-7-5----|
|-14/2-2--2-2-2--5-7--7-7--5-7-7-5----|
|-12/0-0--0-0-0--3-5--5-5--3-5-5-3----|
|-------------------------------------|

      A     C    D    C  D  C
|--------------------------------|
|--------------------------------|
|-2--2-2-2--5-7--7-7--5-7-7-5----|
|-2--2-2-2--5-7--7-7--5-7-7-5----|
|-0--0-0-0--3-5--5-5--3-5-5-3----|
|--------------------------------| Repeat 2 more times

Verse 1
       A    C/D       C/D D/C
     pm...
|---------------------------------------------------|
|---------------------------------------------------|
|-2--2-2-2--5/7--7-7--5/7-7/5-----------------------|
|-2--2-2-2--5/7--7-7--5/7-7/5-----------------------|
|-0--0-0-0--3/5--5-5--3/5-5/3-----------------------|
|---------------------------------------------------|
  Fools. . .

       A    C/D       C/D D/C
     pm...
|---------------------------------------------------|
|---------------------------------------------------|
|-2--2-2-2--5/7--7-7--5/7-7/5-----------------------|
|-2--2-2-2--5/7--7-7--5/7-7/5-----------------------|
|-0--0-0-0--3/5--5-5--3/5-5/3-----------------------|
|---------------------------------------------------|
  Shades of . . .

       A    C/D       C/D D/C               D
     pm...
|-----------------------------------0-----------|
|-----------------------------------1-----------|
|-2--2-2-2--5/7--7-7--5/7-7/5-------0-----7--7--|
|-2--2-2-2--5/7--7-7--5/7-7/5-0---2-------7--7--|
|-0--0-0-0--3/5--5-5--3/5-5/3-0-3-----3/5-5--5--|
|-----------------------------------------------|
  Rats and snakes. .				But they won't
		
       A    C/D       C/D D/C		
     pm...
|---------------------------------------------------|
|---------------------------------------------------|
|-2--2-2-2--5/7--7-7--5/7-7/5-----------------------|
|-2--2-2-2--5/7--7-7--5/7-7/5-----------------------|
|-0--0-0-0--3/5--5-5--3/5-5/3-----------------------|
|---------------------------------------------------|
  Ever know. . .

       A    C/D       C/D D/C
     pm...
|---------------------------------------------------|
|---------------------------------------------------|
|-2--2-2-2--5/7--7-7--5/7-7/5-----------------------|
|-2--2-2-2--5/7--7-7--5/7-7/5-----------------------|
|-0--0-0-0--3/5--5-5--3/5-5/3-----------------------|
|---------------------------------------------------|
  Take the reins

       A    C/D       C/D D/C             D
     pm...
|-----------------------------------0-----------|
|-----------------------------------1-----------|
|-2--2-2-2--5/7--7-7--5/7-7/5-------0-----7--7--|
|-2--2-2-2--5/7--7-7--5/7-7/5-0---2-------7--7--|
|-0--0-0-0--3/5--5-5--3/5-5/3-0-3-----3/5-5--5--|
|-----------------------------------------------|
  Down the road	. . 				You know

Pre Chorus	(Every first note rings out followed
		  by two  short abrust notes)
     B                D
|---------------------------------|
|---------------------------------|
|-4--4-4---4--4-4---7--7-7---7/0--|
|-4--4-4---4--4-4---7--7-7---7/0--|
|-2--2-2---2--2-2---5--5-5---5/0--|
|---------------------------------|
  You know. . .

  A C D C A     A C D C A     A C D C A  
|--------------------------------------------------------------|
|--------------------------------------------------------------|
|---5-7-5-2-------5-7-5-2-------5-7-5-2-2-2-2-2-2-2-2--0-2/5-5-|
|---5-7-5-2-------5-7-5-2-------5-7-5-2-2-2-2-2-2-2-2--0-2/5-5-|
|-0-3-5-3-0-----0-3-5-3-0-----0-3-5-3-0-0-0-0-0-0-0-0--0-2/5-5-|
|--------------------------------------------------------------|
   like it        need it        want it. . 

Chorus
       A    G      F#m   G      Fm    G     A
     pm. .       pm. .        pm. .        pm.
|--------------------------------------------------------|
|--------------------------------------------------------|
|-2--2-2-2------------------------------2--2-2--0-2/5-5--|
|-2--2-2-2--5-4--4-4-4---5-3--3-3-3---5-2--2-2--0-2/5-5--|
|-0--0-0-0--5-4--4-4-4---5-3--3-3-3---5-0--0-0--0-2/5-5--|
|-----------3-2--2-2-2---3-1--1-1-1---3------------------|
  Got no shame            Well I got no one to blame

       A    G     F#m    G       Fm            G
     pm. .       pm. .       
|--------------------------------------------------------|
|--------------------------------------------------------|
|-2--2-2-2-----------------------------------------------|
|-2--2-2-2--5-4--4-4-4---5-3--3-3-3-3-3-3-3--5-5---------|
|-0--0-0-0--5-4--4-4-4---5-3--3-3-3-3-3-3-3--5-5---------|
|-----------3-2--2-2-2---3-1--1-1-1-1-1-1-1--3-3---------|
  All the same             Gonna taste. . .

Play Intro part between verses

Verse 2
       A    C/D       C/D D/C
     pm...
|---------------------------------------------------|
|---------------------------------------------------|
|-2--2-2-2--5/7--7-7--5/7-7/5-----------------------|
|-2--2-2-2--5/7--7-7--5/7-7/5-----------------------|
|-0--0-0-0--3/5--5-5--3/5-5/3-----------------------|
|---------------------------------------------------|
  Walk the streets

       A    C/D       C/D D/C
     pm...
|---------------------------------------------------|
|---------------------------------------------------|
|-2--2-2-2--5/7--7-7--5/7-7/5-----------------------|
|-2--2-2-2--5/7--7-7--5/7-7/5-----------------------|
|-0--0-0-0--3/5--5-5--3/5-5/3-----------------------|
|---------------------------------------------------|
  Heavy load

       A    C/D       C/D D/C              D     C
     pm...
|-----------------------------------0--------------|
|-----------------------------------1--------------|
|-2--2-2-2--5/7--7-7--5/7-7/5-------0/-7-7--7-7--5-|
|-2--2-2-2--5/7--7-7--5/7-7/5-0---2--/-7-7--7-7--5-|
|-0--0-0-0--3/5--5-5--3/5-5/3-0-3----/-5-5--5-5--3-|
|--------------------------------------------------|
 Hounds of blood. . .		So I take. .

       A    C/D       C/D D/C
|---------------------------------------------------|
|---------------------------------------------------|
|-2--2-2-2--5/7--7-7--5/7-7/5-----------------------|
|-2--2-2-2--5/7--7-7--5/7-7/5-----------------------|
|-0--0-0-0--3/5--5-5--3/5-5/3-----------------------|
|---------------------------------------------------|
 Sister sweet,. .

       A    C/D       C/D D/C
|---------------------------------------------------|
|---------------------------------------------------|
|-2--2-2-2--5/7--7-7--5/7-7/5-----------------------|
|-2--2-2-2--5/7--7-7--5/7-7/5-----------------------|
|-0--0-0-0--3/5--5-5--3/5-5/3-----------------------|
|---------------------------------------------------|
 Just can't. .

       A    C/D       C/D D/C               D
|-----------------------------------0-----------|
|-----------------------------------1-----------|
|-2--2-2-2--5/7--7-7--5/7-7/5-------0-----7--7--|
|-2--2-2-2--5/7--7-7--5/7-7/5-0---2-------7--7--|
|-0--0-0-0--3/5--5-5--3/5-5/3-0-3-----3/5-5--5--|
|-----------------------------------------------|
 Black cat. .		        Don't. . .

Play Pre Chorus for "I found shelter" lines

Chorus
      A     G    F#m     G     Fm     G    A    
     pm. .       pm. .        pm. .        pm.
|--------------------------------------------------------|
|--------------------------------------------------------|
|-2--2-2-2------------------------------2--2-2--0-2/5-5--|
|-2--2-2-2--5-4--4-4-4---5-3--3-3-3---5-2--2-2--0-2/5-5--|
|-0--0-0-0--5-4--4-4-4---5-3--3-3-3---5-0--0-0--0-2/5-5--|
|-----------3-2--2-2-2---3-1--1-1-1---3------------------|
  Got no shame            Well I got no one to blame

      A     G   F#m      G     Fm     G     A   
     pm. .       pm. .        pm. .        pm.
|--------------------------------------------------------|
|--------------------------------------------------------|
|-2--2-2-2------------------------------2--2-2--0-2/5-5--|
|-2--2-2-2--5-4--4-4-4---5-3--3-3-3---5-2--2-2--0-2/5-5--|
|-0--0-0-0--5-4--4-4-4---5-3--3-3-3---5-0--0-0--0-2/5-5--|
|-----------3-2--2-2-2---3-1--1-1-1---3------------------|
  Got no shame		   All the stakes. . .

      A     G    F#m     G       Fm
     pm. .       pm. .       
|----------------------------------------------------|
|----------------------------------------------------|
|-2--2-2-2-------------------------------------------|
|-2--2-2-2--5-4--4-4-4---5-3--3-3-3-3-3-3-3----------|
|-0--0-0-0--5-4--4-4-4---5-3--3-3-3-3-3-3-3----------|
|-----------3-2--2-2-2---3-1--1-1-1-1-1-1-1----------|
 All the same 		  But you will. . .

Solo
			             (bend and release a little
			      ~	    +  with each two notes)
|--------------------------------------------------------|
|---------------------------------/12--12-12--12-12--12--|
|--------------------------------------------------------|
|-------5---5h7-7h9h7h5h7---5----------------------------|
|-0/5h7---7---------------7---7--------------------------|
|--------------------------------------------------------|

	    ~	 +~            ~	~
|----------------12--10----------------------------------|
|-10---8h10-------------12h11h10---8h10h8----------------|
|----9------9--------------------9-----------------------|
|--------------------------------------------------------|
|--------------------------------------------------------|
|--------------------------------------------------------|

  ~   ~
|--------------------------------------------------------|
|--------------------------------------------------------|
|--------------------------------------------------------|
|------------------0/(8)/14-14/10----0/(8)/14-14/10------|
|---/10h12-12/0-------------------12-----------------12--|
|-3------------------------------------------------------|

|------------------------------------|
|------------------------------------|
|------------------------------------|
|-0/(8)/14-14/10----0/(8)/14-14/10---|
|----------------12----------------12|
|------------------------------------|

					     ~
|-----------------------------------------------|
|-----------------------------------------------|
|-----------------------------------------------|
|-0/(8)/14-14/10----------10-14-12-10h12h10-10--|
|----------------12-10-12-----------------------|
|-----------------------------------------------|

|----------------------------------------------------------------|
|----------------------------------------------------------------|
|----------------------------------------------------------------|
|-0/17--17-17-17-17-17-17/16-16-16-16/14-14-14-14/12-12-12/10----|
|----------------------------------------------------------------|
|----------------------------------------------------------------|

					       ~
|--------------------------------------------------|
|--------------------------------------------------|
|--------------------------------------------------|
|-10-12-12h13h12--10-12h10---12-12h13h12h10---10---|
|--------------------------9----------------9------|
|--------------------------------------------------|

  ~        ~      ~         ~
|---------------------------------17h15-------17h15-------|
|-8/10-10-10--13-10--8---8h10-17--------15h17-------15h17-|
|----------------------9----------------------------------|
|---------------------------------------------------------|
|---------------------------------------------------------|
|---------------------------------------------------------|

					+     ~
|-17h15-------17h15-------17h15--------19----17---|
|-------15h17-------15h17-------15h17-----17------|
|-------------------------------------------------|
|-------------------------------------------------|
|-------------------------------------------------|
|-------------------------------------------------|

				 ~
|-17h15-------15-------------------|
|-------15h17----16h15-------------|
|----------------------17h14----14-|
|----------------------------17----|
|----------------------------------|
|----------------------------------|

Pre Chorus (alternative after solo)
|-------7-7------7-7------7-------7-7-----7-7-----7--|
|---5/7------5/7------5/7-----5/7-----5/7-----5/7----|
|----------------------------------------------------|
|----------------------------------------------------|
|----------------------------------------------------|
|----------------------------------------------------|
 You know. . .

|---------10-10-------10-10-------10-|
|----7/10--------7/10--------7/10----|
|------------------------------------|
|------------------------------------|
|------------------------------------|
|------------------------------------|
 . .everything they're not

  A C D C A     A C D C A     A C D  A C D  A C D
						+
|--------------------------------------------------|
|--------------------------------------------------|
|---5-7-5-2-------5-7-5-2-------5-7----5-7----5-7--|
|---5-7-5-2-------5-7-5-2-------5-7----5-7----5-7--|
|-0-3-5-3-0-----0-3-5-3-0-----0-3-5--0-3-5--0-3-5--|
|--------------------------------------------------|
   like it        need it        I won't. . . 

Chorus
       A    G     F#m    G     Fm     G   A    
     pm. .       pm. .        pm. .        pm.
|--------------------------------------------------------|
|--------------------------------------------------------|
|-2--2-2-2------------------------------2--2-2--0-2/5-5--|
|-2--2-2-2--5-4--4-4-4---5-3--3-3-3---5-2--2-2--0-2/5-5--|
|-0--0-0-0--5-4--4-4-4---5-3--3-3-3---5-0--0-0--0-2/5-5--|
|-----------3-2--2-2-2---3-1--1-1-1---3------------------|
  Got no shame            Well I got no one to blame

       A    G      F#m   G    Fm      G   A
     pm. .       pm. .        pm. .        pm.
|--------------------------------------------------------|
|--------------------------------------------------------|
|-2--2-2-2------------------------------2--2-2--0-2/5-5--|
|-2--2-2-2--5-4--4-4-4---5-3--3-3-3---5-2--2-2--0-2/5-5--|
|-0--0-0-0--5-4--4-4-4---5-3--3-3-3---5-0--0-0--0-2/5-5--|
|-----------3-2--2-2-2---3-1--1-1-1---3------------------|
  Got no shame		   All the stakes. . .

       A    G     F#m    G    Fm      G   A
     pm. .       pm. .        pm. .        pm.
|--------------------------------------------------------|
|--------------------------------------------------------|
|-2--2-2-2------------------------------2--2-2--0-2/5-5--|
|-2--2-2-2--5-4--4-4-4---5-3--3-3-3---5-2--2-2--0-2/5-5--|
|-0--0-0-0--5-4--4-4-4---5-3--3-3-3---5-0--0-0--0-2/5-5--|
|-----------3-2--2-2-2---3-1--1-1-1---3------------------|
  Got no shame            Well I got no one to blame

      A     G      F#m   G     Fm             G
     pm. .       pm. .       
|--------------------------------------------------------|
|--------------------------------------------------------|
|-2--2-2-2-----------------------------------------------|
|-2--2-2-2--5-4--4-4-4---5-3--3-3-3-3-3-3-3--5-5---------|
|-0--0-0-0--5-4--4-4-4---5-3--3-3-3-3-3-3-3--5-5---------|
|-----------3-2--2-2-2---3-1--1-1-1-1-1-1-1--3-3---------|
 All the same 		  Gonna taste the wine. . 

|--------------------------------------------------------|
|--------------------------------------------------------|
|-10-10-10-10-10-10-10-10-10-10/12-12/0------------------|
|-10-10-10-10-10-10-10-10-10-10/12-12/0------------------|
|-8--8--8--8--8--8--8--8--8--8-/10-10/0------------------|
|--------------------------------------------------------|
 You won't. ..		         Never get inside. .

  A  G F#m  G Fm G A
Outro
|----------------------------------------------------------|
|----------------------------------------------------------|
|-2----------------2---------------------------------------|
|-2--5-4----5-3--5-2---------------------------------------|
|-0--5-4----5-3--5-0---------------------------------------|
|----3-2----3-1--3-----------------------------------------|
			Repeat about 6 times for fade out

I borrowed these from the fan site. 
If you have any questions E-mail me at 
Angelo_Ravenius@hotmail.com
Suggest correction
Give kudos to tab author, rate the tab!
1 2 3 4 5
comments
print report bad tab
1 comment total.
0 reply
kjvollaro 10 Nov 05, 2014 04:21 AM

mostly good, but missing the section before and during the beginning of the solo, and the intro riff should be slightly different than the verse riff.

guest
You may want to rate the tab now too:
select rating
Wanna post a correction for this tab? Suggest correction