Oops, an error
Loading. Please wait.

Ghost In The Room tab

55 views 1 this week
no commentswrite comment
1 2 3 4 5
3 more votes to show rating
add to favorites
×
Save as Personal and add changes to this tab that will be seen only by you. Learn more ›
×
You can save this tab as Personal to edit and correct it or add notes. All changes will be seen only by you. Learn more »
launch autoscroll
font size
0
reset
how to read this tab
guitar tuner
edit
Autoscroll
slow
fast
+/-
esc
set tempo
stop
-------------------------------------------------------------------------------------
                             Ghost In The Room - Brother Grey
-------------------------------------------------------------------------------------
Tabbed by: Bart Baart
Let me know if you have any suggestions :)

Tuning: Drop C

[INTRO]
(synth1 plays)
d|---------------------------------|---------------------------------|---------------------------------|
a|---------------------------------|---------------------------------|---------------------------------|
f|---------------------------------|---------------------------------|---------------------------------|
c|---------------------------------|---------------------------------|---------------------------------|
g|---------------------------------|---------------------------------|---------------------------------|
c|-5-5-5-8-5-5-5-8-5-5-5-8-5-5-5-8-|-5-5-5-8-5-5-5-8-5-5-5-8-5-5-5-8-|-5-5-5-8-5-5-5-8-5-5-5-8-5-5-5-8-|

d|---------------------------------|
a|---------------------------------|
f|---------------------------------|
c|---------------------------------|
g|---------------------------------|
c|-5-5-5-8-5-5-5-8-5-5-5-8-5-5-5-8-| [REPEAT 7X]


(synth2 plays)
d|-------------------------|------------------------|--------------------|-----------------|
a|-/11--------------(/15)--|-/9--------------(/11)--|-/3-----------------|-----------------|
f|-------------------------|------------------------|--------------------|-----------------|
c|-------------------------|------------------------|--------------------|-----------------|
g|-------------------------|------------------------|--------------------|-----------------|
c|-------------------------|------------------------|--------------------|-----------------| [REPEAT 5X]


[VERSE ONE]
e|---------------------------|---------------------------|---------------------------|
B|---------------------------|---------------------------|---------------------------|
G|---------------------------|---------------------------|---------------------------|
D|-1--1--1--1----1-1-1-1-1-1-|-0--0--0--0----0-0-0-0-0-0-|-5--5--5--5----5-5-5-5-5-5-|
A|-1--1--1--1----1-1-1-1-1-1-|-0--0--0--0----0-0-0-0-0-0-|-5--5--5--5----5-5-5-5-5-5-|
E|-1--1--1--1----1-1-1-1-1-1-|-0--0--0--0----0-0-0-0-0-0-|-5--5--5--5----5-5-5-5-5-5-|

e|---------------------------|
B|---------------------------|
G|---------------------------|
D|-5--5--5--5----8-8-8-8-8-8-|
A|-5--5--5--5----8-8-8-8-8-8-|
E|-5--5--5--5----8-8-8-8-8-8-| [REPEAT 2X]


[VERSE TWO]
play synth1 and synth2 4x


[VERSE ONE]
just play verse one like before


[VERSE TWO]
just play verse two like before


[BRIDGE]

e|------------------------------|------------------------------|
B|------------------------------|------------------------------|
G|------------------------------|------------------------------|
D|-x-x-5-x-x-5-x-x-5--5-5--5-5--|-x-x-5-x-x-5-x-x-1--1-1--0-0--|
A|-x-x-5-x-x-5-x-x-5--5-5--5-5--|-x-x-5-x-x-5-x-x-1--1-1--0-0--|
E|-x-x-5-x-x-5-x-x-5--5-5--5-5--|-x-x-5-x-x-5-x-x-1--1-1--0-0--| [REPEAT 4X]


[BREAK]


[VERSE ONE]
just play verse one like before

[OUTRO]
play synth2 on guitar (like a solo)





************************************

| /   slide up
| \   slide down
| h   hammer-on
| p   pull-off
| ~   vibrato
| +   harmonic
| x   Mute note
| b   Bend
| pb  Pre-bend
| br  Bend release
| pbr Pre-bend release
| brb Bend release bend

************************************

            
            
Suggest correction
Creating personal tab
Creating personal tab
You can edit any tab online and save it as your Personal.

You can edit, replace or remove any tab part or add personal notes – all changes will be seen only by you.

Personal tabs can be accessed anytime from any device, even offline.
Learn more »
Give kudos to tab author, rate the tab!
1 2 3 4 5
comments
print report bad tab
guest
You may want to rate the tab now too:
select rating
Wanna post a correction for this tab? Suggest correction