Oops, an error
Loading. Please wait.
We have Chord Pro version of Stay A Little Longer.
It's the closest thing you can get to the original song and it has interactive parts. Check out the tab »
×
9,619 views 99 this week
no commentswrite comment
1 2 3 4 5
x 6
add to favorites
×
Save as Personal and add changes to this tab that will be seen only by you. Learn more ›
×
You can save this tab as Personal to edit and correct it or add notes. All changes will be seen only by you. Learn more »
launch autoscroll
font size
0
reset
how to read this tab
guitar tuner
edit
Autoscroll
slow
fast
+/-
esc
set tempo
stop
Title: Stay a Little Longer
Artist: Brothers Osborne
Tempo = 100
Solo Guitar


First solo (1:53)
     E    +S   S  +E    E   +H
D#|----------------------------------------------------|
A#|----------------------------------------------------|
F#|-----------12-(12)---14-(14)------------------------|
C#|--12--(12)------------------------------------------|
G#|----------------------------------------------------|
D#|----------------------------------------------------|
     1    +       2      +   3     +    4     + 

     E    +S   S  +E    E   +H
D#|-----------10-(10)----------------------------------|
A#|--------------------12--(12)------------------------|
F#|--12--(12)------------------------------------------|
C#|----------------------------------------------------|
G#|----------------------------------------------------|
D#|----------------------------------------------------|
  1    +       2      +   3     +    4     + 

     E    +S   S  +E    E   +H
D#|----------------------------------------------------|
A#|--10--(10)-12-(12)s--5--(5)-------------------------|
F#|----------------------------------------------------|
C#|----------------------------------------------------|
G#|----------------------------------------------------|
D#|----------------------------------------------------|
  1    +       2      +   3     +    4     + 

     E    +S   S  +E    E   +E      E    Q
D#|--------------------12--(12)------------------------|
A#|--12--(12)-13-(13)--------------13---15-------------|
F#|----------------------------------------------------|
C#|----------------------------------------------------|
G#|----------------------------------------------------|
D#|----------------------------------------------------|
  1    +       2      +   3     +     4     + 


   (2:04)
     E    +S   S  +E    E   +H
D#|----------------------------------------------------|
A#|----------------------------------------------------|
F#|-----------12-(12)--14--(14)------------------------|
C#|--12--(12)------------------------------------------|
G#|----------------------------------------------------|
D#|----------------------------------------------------|
  1    +       2      +   3     +    4     + 

     E    +S   S  +E    E   +Q          S  S   +E
D#|-----------10-(10)----------------------------------|
A#|--------------------12--(12)---------10s12-(12)-----|
F#|--12--(12)------------------------------------------|
C#|----------------------------------------------------|
G#|----------------------------------------------------|
D#|----------------------------------------------------|
  1    +       2      +   3     +    4     + 

      E   +S  S  E   +S   S  Q         +E       S  S
D#|--15--(15)---14--(14)----12--------(12)-------------|
A#|-----------12---------12--------------------12s13---|
F#|----------------------------------------------------|
C#|----------------------------------------------------|
G#|----------------------------------------------------|
D#|----------------------------------------------------|
  1    +      2      +   3     +    4       + 

      E     S  S  +S  S  E    +H
D#|--17-------15-(15)---19---(19)----------------------||
A#|--------13--------13--------------------------------||
F#|----------------------------------------------------||
C#|----------------------------------------------------||
G#|----------------------------------------------------||
D#|----------------------------------------------------||
  1    +       2      +    3     +    4     + 

   Outro:
                                               (2:45)
                                               S  S
D#|----------------------------------------------------|
A#|----------------------------------------------------|
F#|--------------------------------------------12-12---|
C#|----------------------------------------------------|
G#|----------------------------------------------------|
D#|----------------------------------------------------|
   1    +       2      +   3     +    4     + 

      S  S  S  S  +E    E    +Q           S  S  E         W
D#|----------------------------------------------------|-------||
A#|--10h12----10-(10)----------------------------------|-------||
F#|--------------------12---(12)---------11h12h11------|--9----||
C#|----------------------------------------------------|-------||
G#|----------------------------------------------------|-------||
D#|----------------------------------------------------|-------||
  1      +     2     +     3      +    4     +         1


   Solo (The big one)
   Section A: (2:53)
     E     S  S  +S  S  E    +Q        E       S  S
D#|----------------------------------------------------|
A#|----------------------------------------------------|
F#|----------------------------------------------------|
C#|----------------------------------------------------|
G#|--------------------------------------------x--x----|
D#|--3--------5-(5)-----7----(7)-----------------------|
  1     +     2      +     3   +    4       +

     E     S  S  +S  S  E    +Q           S  S  S  S  
D#|----------------------------------------------------|
A#|----------------------------------------------------|
F#|------------------------------------------7---------|
C#|-----------5--(5)---7s9---(9)----------------7--5/--|
G#|--/5------------------------------------------------|
D#|----------------------------------------------------|
  1     +      2     +     3      +    4     +

      E     S  S  +E   E    +Q           S  S  S  S  
D#|----------------------------------------------------|
A#|----------------------------------------------------|
F#|----------------------------------------------------|
C#|--/7-------/9L-9------------------------------------|
G#|--------------------7----(7)-------------3--5s-7----|
D#|----------------------------------------------------|
  1      +     2    +     3      +    4     +

     E    +S  S +E     E     Q          +Q
D#|----------------------------------------------------|
A#|----------------------------------------------------|
F#|--------------------------7b9--------9r7------------|
C#|--5----(5)-7-(7)----9-----5----------(5)------------|
G#|----------------------------------------------------|
D#|----------------------------------------------------|
  1     +     2     +     3     +     4     +

   (3:03)
     E     S  S  +S  S  E    +Q        E       S  S
D#|----------------------------------------------------|
A#|----------------------------------------------------|
F#|----------------------------------------------------|
C#|----------------------------------------------------|
G#|----------------------------------------------------|
D#|--3--------5-(5)-----7----(7)---------------5h-7----|
  1     +     2      +     3   +    4       +

     E     S  S  +S  S  E    +Q           S  S  S  S  
D#|----------------------------------------------------|
A#|----------------------------------------------------|
F#|------------------------------------------7---------|
C#|-----------5--(5)---7s9---(9)----------------7--5---|
G#|--5-------------------------------------------------|
D#|----------------------------------------------------|
  1     +      2     +     3      +    4     +

     S  S  S  S  S  S  S  S  S  S  E     E     S  S
D#|----------------------------------------------------|
A#|----------------------------------------------------|
F#|--------7-------------------------------------------|
C#|--7h-9-----9p-7s-5-----------5----------------------|
G#|--------------------7r-5--7-----7----(7)----7s-9----|
D#|----------------------------------------------------|
  1     +     2     +     3     +     4     +

     E     S  S +S  S  E     H
D#|----------------------------------------------------|
A#|--------------------------5s\-----------------------|
F#|--------------------7-----7s\-----------------------|
C#|--5--------7-(7)----------7s\-----------------------|
G#|----------------------------------------------------|
D#|----------------------------------------------------|
  1     +     2     +     3     +     4     +

   Section B: (3:13)
     S   S   S   S   S   S   S   S   S   S   S   S   E      S   S
D#|--------------------------------------------------------------------|
A#|--------------------------------------------------------------------|
F#|--------------------------------------------------------------------|
C#|--4s--5---5---5---4s--5---5---5---4s--5---5---5---5h7p5p-0---5------|
G#|--------------------------------------------------------------------|
D#|--------------------------------------------------------------------|
  1       +       2       +       3       +       4      +

     +S   S   S   S   S   S   S   S   S   S   S   S   E      S   S
D#|--------------------------------------------------------------------|
A#|--------------------------------------------------------------------|
F#|--------------------------------------------------------------------|
C#|--(5)--5---5---5---4s--5---5---5---4s--5---5---5---5h7p5p-0---5-----|
G#|--------------------------------------------------------------------|
D#|--------------------------------------------------------------------|
   1       +       2       +       3       +       4      +
  
     +S   S   S   S   S   S   S   S   S   S   S   S   S   S   S   S
D#|--------------------------------------------------------------------|
A#|--------------------------------------------------------------------|
F#|-------------------------------7-----------------------5---4---2----|
C#|--(5)--5---4s--5---5---7s--9-------7---5----------------------------|
G#|-------------------------------------------7---5---7----------------|
D#|--------------------------------------------------------------------|
   1       +       2       +       3       +       4      +
  
      S   S   S   S   S   S   S   S   E       E       E       E   
D#|--------------------------------------------------------------------|
A#|--------------------------------------------------------------------|
F#|---5---4---2---0-------------------------------------------0h-2h-4--|
C#|-------------------4---2---0-----------------------0h-2h-4----------|
G#|-------------------------------3-----------0h-2h-3------------------|
D#|-----------------------------------0h-2h-3--------------------------|
   1       +       2       +       3       +       4      +


   (3:23)
     S   S   S   S   S   S   S   S   S   S   S   S   E      S   S
D#|--------------------------------------------------------------------|
A#|--------------------------------------------------------------------|
F#|--------------------------------------------------------------------|
C#|--4s--5---5---5---4s--5---5---5---4s--5---5---5---5h7p5p-0---5------|
G#|--------------------------------------------------------------------|
D#|--------------------------------------------------------------------|
  1       +       2       +       3       +       4      +

      S   S   S   S   S   S   S   S   S   S   S   S   S   S  +S   S   
D#|--------------------------------------------------------------------|
A#|--------------------------------------------------------------------|
F#|-------------------------------------------------------7------------|
C#|--(5)--5---4s--5---5---5---4s--5---5---5---5---7s--9-----------7b---|
G#|--------------------------------------------------------------------|
D#|--------------------------------------------------------------------|
   1       +       2       +       3       +       4       +
   
      S   S   S   S   S   S   S   S   S   S   S   S   S   S   S   S   
D#|--------------------------------------------------------------------|
A#|--------------------------------------------------------------------|
F#|--------------------------------------------------------------------|
C#|--(9)-r7--p5-----------------------------------------------0--h2----|
G#|---------------7--p5---------------------------0--h2--h3------------|
D#|-----------------------7--p5---3---0--h2--h3------------------------|
   1       +       2       +       3       +       4       +

      S   S   S   S   S   S   S   S   S   S   S   S   E       S   S   
D#|--------------<5>---------------------------------------------------|
A#|---x---x---x--<5>---------------------------------------------------|
F#|---x---x---x--<5>--------------7------12--14-------12---------12----|
C#|---x---x---x--<5>------7--h9------/14----------14---------14--------|
G#|--------------------------------------------------------------------|
D#|--------------------------------------------------------------------|
   1       +       2       +       3       +       4       +
   
   Section C: (3:32)
      S   S   S   S   S   S   S   S   S   S   S   S   E        S   S   
D#|--------------------------------------------------------------------|
A#|----------15----------15----------15----------15--------------------|
F#|--14--16------14--16------14--16------14--16------16s14-12------12--|
C#|-----------------------------------------------------------14-------|
G#|--------------------------------------------------------------------|
D#|--------------------------------------------------------------------|
   1       +       2       +       3       +       4        +

      S   S   S   S   S   S   S   S   S   S   S   S   E        S   S   
D#|--------------------------------------------------------------------|
A#|----------15----------15----------15----------15--------------------|
F#|--14--16------14--16------14--16------14--16------16s14-12------12--|
C#|-----------------------------------------------------------14-------|
G#|--------------------------------------------------------------------|
D#|--------------------------------------------------------------------|
   1       +       2       +       3       +       4        +


      S   S   S   S   S   S   S   S   E       S   S   E        S   S   
D#|--------------------------------------------------------------------|
A#|----------17----------17--------------------------------------------|
F#|--14h-16------14h-16------14h-16--16s14-12----12--10-------10---9---|
C#|------------------------------------------14------------------------|
G#|--------------------------------------------------------------------|
D#|--------------------------------------------------------------------|
   1       +       2       +       3       +       4        +

       S   S   S   S   S   S   S   S   S   S   S   S   E       E 
D#|--------------------------------------------------------------------|
A#|--------------------------------------------------------------------|
F#|----9--10p9s7---9p7s5---7p5s3-------0-------------------------------|
C#|----------------------------------------3---0-----------------------|
G#|------------------------------------------------1b-(1)--------------|
D#|------------------------------------------------------------3-------|
    1       +       2       +       3       +       4       +
   
       E   S   S   S   S   S   S   S   S   S   S   S   S   S   S   S
D#|--------------------------------------------------------------------|
A#|---------------------------15----------15----------15----------15---|
F#|-------------------14h-16------14h-16------14h-16------14h-16--16---|
C#|--------------------------------------------------------------------|
G#|--------------------------------------------------------------------|
D#|---(3)/-------------------------------------------------------------|
    1       +       2       +       3       +       4        +
        
      +S   S  +S   S  +S   S  +S   S  +S   S  +S   S   E       S   S
D#|--------------------------------------------------------------------|
A#|--(15)-15-(15)-15-(15)-15-(15)-15-(15)-15--15L-15L-15\----------x---|
F#|--(16)-16-(16)-16-(16)-16-(16)-16-(16)-16--16L-16L-16\--------------|
C#|--------------------------------------------------------------------|
G#|--------------------------------------------------------------------|
D#|--------------------------------------------------------------------|
    1       +       2       +       3       +       4        +

   (3:48)
       E       E      +E       E        S   S   S   S  +S   S   S   S
D#|--------------------------------------------------------------------|
A#|---15b17---15b17--(17)-----17r15p12-15-----------------------0---0--|
F#|----------------------------------------14b-16r-12-(12)------0---0--|
C#|-------------------------------------------------------------0---0--|
G#|--------------------------------------------------------------------|
D#|--------------------------------------------------------------------|
    1       +       2       +       3       +       4        +

       S   S  +E       S   S   E      +Q               Q
D#|--------------------------------------------------------------------|
A#|---17br17-(17)-----15-(15)-15-----(15)------------------------------|
F#|---17br17-(17)-----15h-17--15-----(15)------------------------------|
C#|---------------------------------------------------17~~~~~~~~-------|
G#|--------------------------------------------------------------------|
D#|--------------------------------------------------------------------|
    1       +       2       +       3       +       4       +

   Section D: (3:52)
       S   S   S   S   S   S   S   S   S   S   S   S   S   S   S   S
D#|-----------15----------15----------15----------15----------15-------|
A#|---------------17--19------------------17--19------------------17---|
F#|---17--19------------------17--19------------------17--19-----------|
C#|--------------------------------------------------------------------|
G#|--------------------------------------------------------------------|
D#|--------------------------------------------------------------------|
    1       +       2       +       3       +       4       +

       S   S   S   S   S   S   S   S   S   S   S   S   S   S   S   S
D#|-------15----------15----------15----------15----------15-----------|
A#|---19------------------17--19------------------17--19---------------|
F#|-----------17--19------------------17--19---------------------------|
C#|-----------------------------------------------------------17--19---|
G#|--------------------------------------------------------------------|
D#|--------------------------------------------------------------------|
    1       +       2       +       3       +       4       +

       S   S   S   S   S   S   E       E       S   S  +S   S   S   S
D#|---15----------15---------------------------------------------------|
A#|-------------------17--19--19b-----20------20--20-(20)-20--20--20---|
F#|-------17--19-------------------------------------------------------|
C#|--------------------------------------------------------------------|
G#|--------------------------------------------------------------------|
D#|--------------------------------------------------------------------|
    1       +       2       +       3       +       4       +

       E       S   S   E       S   S   Q               E       S   S
D#|---------------------------------------------------------------------|
A#|--(20)-----20--20--19b-----20--20--19b----------------------x---x----|
F#|------------------------------------------------------------x---x----|
C#|------------------------------------------------------------x---x----|
G#|------------------------------------------------------------x---x----|
D#|---------------------------------------------------------------------|
    1       +       2       +       3       +       4       +

   Section E: (4:02)
       E       S   S   E       S   S   E       S   S   S   S   S   S
D#|---------------------------------------------------------------------|
A#|---20~~~~~~20~~20~~20~~~~~~20~~20~(20)~~~~~20~~20~~20~~20~(20)~20~~--|
F#|---19~~~~~~19~~19~~19~~~~~~19~~19~(19)~~~~~19~~19~~19~~19~(19)~19~~~-|
C#|---------------------------------------------------------------------|
G#|---------------------------------------------------------------------|
D#|---------------------------------------------------------------------|
    1       +       2       +       3       +       4       +

       E       S   S   E       S   S   E       S   S   S   S   S   S
D#|---------------------------------------------------20b22---22--22----|
A#|---20~---~~20~~20~~20~---~~20~~20~(20)~~~~~~x--x--x------------------|
F#|---19~---~~19~~19~~19~---~~19~~19~(19)~~~~~~x--x--x------------------|
C#|--------------------------------------------x--x--x------------------|
G#|---------------------------------------------------------------------|
D#|---------------------------------------------------------------------|
    1       +       2       +       3       +       4       +

       E       S   S   E       S   S  +S   S   S   S   E       S   S
D#|---20b22---22--22--20b22---22--20b22---22--22--22--20b22---22--22----|
A#|---------------------------------------------------------------------|
F#|---------------------------------------------------------------------|
C#|---------------------------------------------------------------------|
G#|---------------------------------------------------------------------|
D#|---------------------------------------------------------------------|
    1       +       2       +       3       +       4       +

       E       S   S  +S   S   E       E       S   S  +S   S   E         W
D#|---20b22---22--20b22---22--20b22---20b22---22--20b22---22--20b22--|--20b22--|
A#|------------------------------------------------------------------|---------|
F#|------------------------------------------------------------------|---------|
C#|------------------------------------------------------------------|---------|
G#|------------------------------------------------------------------|---------|
D#|------------------------------------------------------------------|---------|
    1       +       2       +       3       +       4       +         1

   Section F: (4:23)
               E      +E       E     +W      +H      +E   E  +E    E
D#|--------------------------------|-------|----------------------------|
A#|--------------------------------|-------|----------------------------|
F#|--------------------------------|-------|-----------------------2----|
C#|----------------------------0---|-(0)---|-(0)----------0--(0)--------|
G#|--------------------------------|-------|----------------------------|
D#|------------3------(3)----------|-------|----------------------------|
    3       +       4       +      1       1 + 2 + 3   +   4    +
    
    +W      +H           E  E +E  E       H          +Q    +E  E
D#|-------|----------------------------|-----------------------5----|
A#|-------|-----------------------3----|--3----------(3)---(3)------|
F#|-(2)---|-(2)-------------2-(2)------|----------------------------|
C#|-------|----------------------------|----------------------------|
G#|-------|----------------------------|----------------------------|
D#|-------|----------------------------|----------------------------|
  1       1  +  2  +  3  +  4  +       1  +  2  +  3  +  4  +
  
     Q    +E  E +Q    +E  E        H          +Q    +E  E      W
D#|-(5)-------5-(5)---(5)-7----|--(7)---------(7)---(7)-8---|-(8)---|
A#|-----------------------7----|--(7)---------(7)---(7)-8---|-(8)---|
F#|-----------------------4----|--(4)---------(4)---(4)-9---|-(9)---|
C#|----------------------------|----------------------------|-------|
G#|----------------------------|----------------------------|-------|
D#|----------------------------|----------------------------|-------|
   1  +  2  + 3  +  4  +        1  +  2  +  3  +  4  +      1
   
   Section G: (4:44)
     E      +S   S  +S   S   E        +H
D#|--------------------------------------------------------------|
A#|--------------------------5--------(5)------------------------|
F#|--7b9----(9)--9--(9)-r7---------------------------------------|
C#|--------------------------------------------------------------|
G#|--------------------------------------------------------------|
D#|--------------------------------------------------------------|
  1       +       2       +         3      +     4      +

     E      +S   S  +S   S   E        +H
D#|--------------------------------------------------------------|
A#|--------------------------7--------(7)------------------------|
F#|--9b11--(11)-11-(11)-r9---------------------------------------|
C#|--------------------------------------------------------------|
G#|--------------------------------------------------------------|
D#|--------------------------------------------------------------|
  1       +       2       +         3      +     4      +
  
      E      +S   S  +S   S   E        +H
D#|--------------------------------------------------------------|
A#|---------------------------8L--------8------------------------|
F#|--11b12--(12)-12-(12)r11--------------------------------------|
C#|--------------------------------------------------------------|
G#|--------------------------------------------------------------|
D#|--------------------------------------------------------------|
  1       +       2       +         3      +     4      +

   (4:52)
      Q    Q    Q    Q       Q    Q    Q    Q       Q    Q    Q    Q       Q    Q    Q    Q
D#|----------------------|----------------------|----------------------|-----------------------|
A#|----------------------|----------------------|----------------------|-----------------------|
F#|--12b14-----14b16-----|--15b17-----17b19-----|--15b17-----17b19-----|--19b--------21b22-----|
C#|----------------------|----------------------|----------------------|-----------------------|
G#|----------------------|----------------------|----------------------|-----------------------|
D#|----------------------|----------------------|----------------------|-----------------------|
   1    2    3    4       1    2    3    4       1    2    3    4       1    2    3    4

   Section H: (5:02)
     S   S   S   S   S   S   S   S   S   S   S   S   E      S   S
D#|--------------------------------------------------------------------|
A#|--------------------------------------------------------------------|
F#|--------------------------------------------------------------------|
C#|--4s--5---5---5---4s--5---5---5---4s--5---5---5---5h7p5p-0---5------|
G#|--------------------------------------------------------------------|
D#|--------------------------------------------------------------------|
  1       +       2       +       3       +       4      +

     +S   S   S   S   S   S   S   S   S   S   S   S   E      S   S
D#|--------------------------------------------------------------------|
A#|--------------------------------------------------------------------|
F#|--------------------------------------------------------------------|
C#|--(5)--5---5---5---4s--5---5---5---4s--5---5---5---5h7p5p-0---5-----|
G#|--------------------------------------------------------------------|
D#|--------------------------------------------------------------------|
   1       +       2       +       3       +       4      +

      S   S   S   S   E      +S   S   S   S   S   S   S   S   S   S
D#|--------------------------------------------------------------------|
A#|--------------------------------------------------------------------|
F#|-------------------7-----------7---7h--9p--7------------------------|
C#|--(5)--5---7---9-------------------------------7b--9r--7---5--------|
G#|---------------------------------------------------------------5s---|
D#|--------------------------------------------------------------------|
    1       +       2       +       3       +       4       +

       E       E       S   S   E      +E       E       Q
D#|--------------------------------------------------------------------|
A#|--------------------------------------------------------------------|
F#|------------5---------------9------(9)------9-------9\--------------|
C#|--------------------------------------------------------------------|
G#|---7-------(7)------7s-10-(10)----(10)-----10------10\--------------|
D#|--------------------------------------------------------------------|

   (5:12)
     S   S   S   S   S   S   S   S   S   S   S   S   E      S   S
D#|--------------------------------------------------------------------|
A#|--------------------------------------------------------------------|
F#|--------------------------------------------------------------------|
C#|--4s--5---5---5---4s--5---5---5---4s--5---5---5---5h7p5p-0---5------|
G#|--------------------------------------------------------------------|
D#|--------------------------------------------------------------------|
  1       +       2       +       3       +       4      +

      S   S   S   S   S   S   S   S   E       S   S   S   S   S   S
D#|--------------------------------------------------------------------|
A#|--------------------------------------------------------------/5L---|
F#|---------------------------------------------------7---9--(9)-------|
C#|--(5)--5---4s--5---5---5---4s--5---5-------7s--9--------------------|
G#|--------------------------------------------------------------------|
D#|--------------------------------------------------------------------|
   1       +       2       +       3       +       4       +

      S   S   E       S   S   S   S   S   S   S   S   S   S   S   S
D#|--------------------------------------------------------------------|
A#|--(5)--3--(3)--------------------------------------3-----------1----|
F#|-------------------2---0---2s--4---2---0---------------0------------|
C#|-------------------------------------------2s--4-----------4--------|
G#|--------------------------------------------------------------------|
D#|--------------------------------------------------------------------|
   1       +       2       +       3       +       4       +

      S   S   S   S   S   S   S   S   S   S   S   S   S   S   S   S
D#|--------------------------------------------------------------------|
A#|-----------5-----------3-----------7-----------5-----------8--------|
F#|---0-----------0-----------0-----------0-----------0-----------0----|
C#|-------2-----------5-----------4-----------7-----------5------------|
G#|--------------------------------------------------------------------|
D#|--------------------------------------------------------------------|
   1       +       2       +       3       +       4       +

      S   S   S   S   S   S   S   S   S   S   S   S   S   S   E      W
D#|---------------------------------------------------------------|--3----||
A#|-------7-----------8----------10----------12----------12--12---|--3----||
F#|-----------0-----------0-----------0-----------0-------0---0---|--0----||
C#|---9-----------7-----------8-----------10---------12--12--12---|--0----||
G#|---------------------------------------------------------------|--2----||
D#|---------------------------------------------------------------|--3----||
   1       +       2       +       3       +       4       +      1



************************************

Legend
() - tied note
x - dead note
h - hammer-on
p - pull-off
b - bend
r - release
s - slide
/ - slide up
\ - slide down
~ - left hand tremolo
W - whole note
H - half note
E - eighth note
S - sixteenth note

************************************

            
            
Suggest correction
Creating personal tab
Creating personal tab
You can edit any tab online and save it as your Personal.

You can edit, replace or remove any tab part or add personal notes – all changes will be seen only by you.

Personal tabs can be accessed anytime from any device, even offline.
Learn more »
comments
print report bad tab
guest
You may want to rate the tab now too:
select rating
Wanna post a correction for this tab? Suggest correction