Oops, an error
Loading. Please wait.

The Jokers Joke tab

by Brouz
16 views 1 this week
no commentswrite comment
1 2 3 4 5
3 more votes to show rating
add to favorites
×
Save as Personal and add changes to this tab that will be seen only by you. Learn more ›
×
You can save this tab as Personal to edit and correct it or add notes. All changes will be seen only by you. Learn more »
launch autoscroll
font size
0
reset
how to read this tab
guitar tuner
edit
Autoscroll
slow
fast
+/-
esc
set tempo
stop
About this tab version
This tab version was made by the composer of "The Joker's Joke" himself. It contains all guitar parts of the recorded version of the song (https://www.youtube.com/watch?v=vyB2NA7KhhA). Was this info helpful? Yes No
Official tab of "The Joker's Joke", a song composed by the artist Brouz ("Brouz singer" 
channel on YouTube).
Music video: https://www.youtube.com/watch?v=vyB2NA7KhhA

[Intro]
Guitar 1(Fender electric guitar in the song):
                       Emin                      D
e|---------------------777-----------------------555--|
B|---------------------888--------------------7--777--|
G|---------4---2-------999------------4---7-4----777--| X4 (guitar 2 plays on the second an fourth time
D|----2--5---4----2-5--999-------2--5---4--------777--|     with the vocals)
A|--2------------------777-----2-----------------555--|
E|----------------------------------------------------|


(Guitar 2 starts on the second riff of Guitar 1)

1."I killed the Spy"                         "You're gonna cry"
2."But there's no doubt"                     "Your turn is out"
3."You stole my money"                       "You criminal"
4."Does your wife know?"                     "So cynical"


Guitar 2(starting on the seconde time of guitar 1 riff):

e|------------3-----------------------------------------2-------|
B|--3 slide 5----5----------------------------2 slide 4----4----|
G|-----------------4-("I killed the Spy")--------------------2--|("You're gonna cry")
D|--------------------------------------------------------------|
A|--------------------------------------------------------------|
E|--------------------------------------------------------------|

[Transition]
e|-----------12------------------------|
B|-----------12------------------------|
G|-11h12-----12--------14--11 let ring-| X2
D|-------14--12--12h14-----------------|
A|-------------------------------------|
E|-------------------------------------|

[Take off]
1 cycle = Type 1 + Type 2

Type 1:
Guitar 1:
e|------------3-----------------------------------------2------|
B|--3 slide 5----5----------------------------2 slide 4----4---|
G|-----------------4-----------------------------------------2-|
D|-------------------------------------------------------------|
A|-------------------------------------------------------------|
E|-------------------------------------------------------------|

                    Guitar 2 (replies to guitar 1):
            e|-----------------------------------------------------------------|
            B|-----------------------------------------------------------------|
            G|-----------------------------------------------------------------|
            D|------------------------------------------------5--7--9 let ring-|
            A|-----2--5--7 let ring--------------------------------------------|
            E|-----------------------------------------------------------------|

Type 2:
Guitar 1:
e|------------3-----------------------------------------2------|
B|--3 slide 5----5----------------------------2 slide 4----4---|
G|-----------------4-----------------------------------------2-|
D|-------------------------------------------------------------|
A|-------------------------------------------------------------|
E|-------------------------------------------------------------|

            Guitar 2 (replies to guitar 1):
            e|------------------------------------------------------------------|
            B|------------------------------------------------------------------|
            G|-----------------------------------------------------5------------|
            D|------------------------------------------------5h7----7 let ring-|
            A|-----2--5--7 let ring---------------------------------------------|
            E|------------------------------------------------------------------|

There are four cycles overall in this section.

[Knife section]
 Guitar 1 plays the chords :
   Emin             D
e|-77--77-----------55--55-|
B|-88--88-----------77--77-|
G|-99--99-----------77--77-|
D|-99--99-----------77--77-|
A|-77--77-----------55--55-|
E|-------------------------|

Guitar 2 plays a solo:
   Emin          D            Emin             D                 Emin       D         B
e|-----------------------------------------------------------------------------------------------------------|
B|-----------------------------------------------------------------------------------------------------------|
G|-----------------------------------------------------------------------------------------------------------|
D|-----------------------------------------------------------------------------------------------------------|
A|--77--5--77--5--99--7--99--7--1010--9-10-9-10-12--14-12--10-9-10--9-10-9-7-5-555-5---2-3-2-3-2-3-3 let ring|
E|-----------------------------------------------------------------------------------------------------------|

[Bomb section]
(just one guitar):

    Emin
e|--0-------------2------|
B|--0------3----4---4----|
G|--0----4-------------2-| X2
D|--2--------------------|
A|--2--------------------|
E|--0--------------------|

      Emin       D    B          D
"It's hard to control passionate soul
   Emin    D     B      D
We are the three demons alive
Emin       D     B           D
Making the money when people die"
Emin - D
e|----3------2---------------------|
B|--5---5--4---4-------------------|
G|----------------2-4-2-4 let ring-| X2
D|---------------------------------|
A|---------------------------------|
E|---------------------------------|

[Dance Section]
 Guitar 1 :
   Emin                             C (on the last one : guitar 1 gets to B chord)
e|----7---------7---------------------3--------3----------|
B|----8----8s10---10p(0)--7-----------5----3s5----5p0---3-|
G|----9-----------------8-------------5---------------4---| X9
D|----9-------------------------------5-------------------|
A|--7-------------------------------3---------------------|
E|--------------------------------------------------------|

Then guitar 1 plays the chords Emin and C (while guitar 2 carries on its solo)

 Guitar 2(starts on the third riff):
e|-12h15-p12h15----12h15-p12h15-----------------------------------------------------|
B|----------------------------------15b(16)15--12-----------------------------------|
G|----------------------------------------------------------------------------------|
D|----------------------------------------------------------------------------------|
A|----------------------------------------------------------------------------------|
E|----------------------------------------------------------------------------------|

[End of the Joke section]
    Emin
e|--0-------------2------|
B|--0------3----4---4----|
G|--0----4-------------2-| X2
D|--2--------------------|
A|--2--------------------|
E|--0--------------------|


 After the 2nd time:
e|--------------------------------0-|
B|-------------3----2----1-------0--|
G|-2-2-2-----4----3----2--------0---|
D|-----------------------------2----|
A|----------------------------2-----|
E|---------------------------0------|



************************************

| h  Hammer-on
| p  Pull-off
 

************************************

            
            
Suggest correction
Creating personal tab
Creating personal tab
You can edit any tab online and save it as your Personal.

You can edit, replace or remove any tab part or add personal notes – all changes will be seen only by you.

Personal tabs can be accessed anytime from any device, even offline.
Learn more »
Give kudos to tab author, rate the tab!
1 2 3 4 5
comments
print report bad tab
guest
You may want to rate the tab now too:
select rating
Wanna post a correction for this tab? Suggest correction