Oops, an error
Loading. Please wait.

Chairkickers chords

85 views 9 this week
no commentswrite comment
1 2 3 4 5
2 more votes to show rating
add to favorites
×
Save as Personal and add changes to this tab that will be seen only by you. Learn more ›
×
You can save this tab as Personal to edit and correct it or add notes. All changes will be seen only by you. Learn more »
launch autoscroll
font size
0
reset
transpose
0
reset
display chords
guitar tuner
edit
Autoscroll
slow
fast
+/-
esc
set tempo
stop
About this tab version
For the strumming pattern pick the bass note followed by two downstrokes in a 3/4 measure for pretty much the whole song. Was this info helpful? Yes No
Strumming
There is no strumming pattern for this song yet. and get +5 IQ
[Intro]
Bm Em Bm F#
Bm Em Bm F# Bm

[Verse 1]
                Bm                    Em
We fight til we fall, us chairkickers all
                  Bm                  F#
we cling to these coils and curl in a ball
              Bm                        Em
the harbor is teeming with commerce and crime
                Bm
I own only what owns me
                    F#                      Bm   F# Bm
this place ain’t my home but i’m calling it mine

[Chorus]
          Bm
there are cracks in the minds
       Em
of our own humankind
         D                      F#
that are leaking out poison and hope
         Bm
which we choose to imbibe
       Em
is our own to decide
      D              F#
be it internal life
        Bm
or the ghost

[Instrumental]
Bm Em Bm F#
Bm Em Bm F# Bm

e|-10--9-7-6-7-----------------------------|
b|--------------7-6-7--7-8--8-10-8-7--6-7--|
G|-----------------------------------------|
D|-----------------------------------------|
A|-----------------------------------------|
E|-----------------------------------------|

e|-10--9-7-6-7--------------------------------------|
b|--------------7-6-7--7-8/12-11-7-3-5-7-5-3-2-0----|
G|-----------------------------------------------3--|
D|--------------------------------------------------|
A|--------------------------------------------------|
E|--------------------------------------------------|

Bm Bm A F# x4

[Verse 2]
                 Bm
blazes cane lady lively
                        Em
a trail through tiny downtown
                    Bm
cane baton twirling wildly
                     F#
mows the mundane all down
                 Bm
will the admiral answer
                Em
when will and I call?
                       Bm
place your bets on the limits
                F#
of a beast’s appetite
                   Bm   F# Bm
and the loser buys all

[Chorus]
Bm
there are cracks in the minds
       Em
of our own humankind
         D                      F#
that are leaking out poison and hope
         Bm
which we choose to imbibe
       Em
is our own to decide
      D              F#
be it internal life
       Bm
or the ghost

[Instrumental]
Bm Em Bm F#
Bm Em Bm F# Bm

e|-10--9-7-6-7-----------------------------|
b|--------------7-6-7--7-8--8-10-8-7--6-7--|
G|-----------------------------------------|
D|-----------------------------------------|
A|-----------------------------------------|
E|-----------------------------------------|

e|-10--9-7-6-7--------------------------------------|
b|--------------7-6-7--7-8/12-11-12-14-12-12----12--|
G|-------------------------------------------11-----|
D|--------------------------------------------------|
A|--------------------------------------------------|
E|--------------------------------------------------|

Legend: "/" = slide up

            
            
Suggest correction
Creating personal tab
Creating personal tab
You can edit any tab online and save it as your Personal.

You can edit, replace or remove any tab part or add personal notes – all changes will be seen only by you.

Personal tabs can be accessed anytime from any device, even offline.
Learn more »
Give kudos to tab author, rate the tab!
1 2 3 4 5
comments
print report bad tab
guest
You may want to rate the tab now too:
select rating
Wanna post a correction for this tab? Suggest correction