Oops, an error
Loading. Please wait.

Seven Hells tab

874 views 27 this week
1 commentread comment
1 2 3 4 5
x 4
add to favorites
×
Save as Personal and add changes to this tab that will be seen only by you. Learn more ›
×
You can save this tab as Personal to edit and correct it or add notes. All changes will be seen only by you. Learn more »
launch autoscroll
font size
0
reset
how to read this tab
guitar tuner
edit
Autoscroll
slow
fast
+/-
esc
set tempo
stop
Author
Couldn't believe this wasn't on here, fun song to play regardless.


[Intro]

|Am - C - Dm - E|
Play twice. Heavy palm muting, listen to the song to get the strum pattern.

*On the last E of the intro, alternate between (022100) and (000100).


[First Solo]

e|---------------------------------------------------------------------------|
B|---------------------------------------------------------------------------|
G|---------------------------------------------------------------------------|
D|------7--10--7--------------------------------------------7--10--7---------|
A|-/7-10--------10-7-5/7-10--5-3-0-3/5-5/7-5-3-5-5/7---/7-10--------10-7-5/7-|
E|---------------------------------------------------------------------------|

e|---------------------------------------------------------------------------|
B|---------------------------------------------------------------------------|
G|---------------------------------------------------------------------------|
D|---------------------------------------------------------------------------|
A|10--5-3-0-3/5-5/7-5-3--0---------------------------------------------------|
E|---------------------/3----------------------------------------------------|


[Verse]

| Am | C | Dm | E |
The verse is the same as the intro. It's played twice again, but strummed 
differently.


[Second Solo]

e|---------------------------------------------------------------------------|
B|---------------------------------------------------------------------------|
G|------------7/9-7--7b~----------------------------------------7/9-7--7b~---|
D|-------7--10-----10--10-7--7-10-9--9-10-9-7-9--7--6-7/9-7---10-----10--10-7|
A|-/7--10------------------10------------------------------------------------|
E|---------------------------------------------------------------------------|

e|---------------------------------------------------------------------------|
B|---------------------------------------------------------------------------|
G|---------------------------------------------------------------------------|
D|--7-10-9-9-9-10-9-7-6-7-7-6-7----------------------------------------------|
A|10-------------------------------------------------------------------------|
E|---------------------------------------------------------------------------|


[Verse]

| Am | C | Dm | E 


[Chorus]

| Dm | Am | E | Am | Dm | Am | C - E | Am |
Play twice. No palm muting, same strum pattern as verse


[Solo 3]

e|---------------------------------------------------------------------------|
B|---8-10-10--8-10-8---------8------------------------------------8-10-10--8-|
G|-/9---------------9-7-9--9--9-7-----7-7-7b~-------/9-9--7-9---/9-----------|
D|-------------------------------10-7--------10-7-10--------------------------|
A|---------------------------------------------------------------------------|
E|---------------------------------------------------------------------------|

e|---------------------------------------------------------------------------|
B|10-8---------8-------------------------------------------------------------|
G|----9-7-9--9--9-7-----7-7-7b~----------------------------------------------|
D|-----------------10-7--------10-7-6-7-7-6-7--------------------------------|
A|---------------------------------------------------------------------------|
E|---------------------------------------------------------------------------|


[Bass Solo]

| Am | C | Dm | E |
Basically play the verse, but strum less.


[Verse]

| Am | C | Dm | E |


[Final Chorus]

| Dm | Am | E | Am | Dm | Am | C - E | Am |

| Dm | Am | E | Am | Dm | Am | C - E | Am |
After playing the normal chorus twice, it moves on to the bridge-y outro thing.


[Outro]

| E | E | Am | Am |
Play this three times, then end with

| C | E | Am | Dm | Am - E - Am |

c: -flengle                           
                                            ~///~



************************************

| /  Slide up
| b  Bend
************************************

            
            
Suggest correction
Creating personal tab
Creating personal tab
You can edit any tab online and save it as your Personal.

You can edit, replace or remove any tab part or add personal notes – all changes will be seen only by you.

Personal tabs can be accessed anytime from any device, even offline.
Learn more »
comments
print report bad tab
1 comment total.
+1 reply
onionkidpoe 21 Aug 19, 2016 07:21 PM

WOW dude, can you tab Nine Eyes as well?

guest
You may want to rate the tab now too:
select rating
Wanna post a correction for this tab? Suggest correction