Oops, an error
Loading. Please wait.

Its For You tab

4 views 1 this week
no commentswrite comment
1 2 3 4 5
3 more votes to show rating
add to favorites
×
Save as Personal and add changes to this tab that will be seen only by you. Learn more ›
×
You can save this tab as Personal to edit and correct it or add notes. All changes will be seen only by you. Learn more »
launch autoscroll
font size
0
reset
how to read this tab
guitar tuner
edit
Autoscroll
slow
fast
+/-
esc
set tempo
stop
[Intro]
e|-----------------------------------------|
B|--1--0--1--1---1-----1--0--1--1---1----1-|
G|--0--0--2--2p0h2-----0--0--2--2p0h2----0-|
D|--2--0--3--3---3-----2--2--3--3---3----2-|
A|--3--3--3--3---3-----3--3--3--3---3----3-|
E|--3--3---------------3--3--------------3-|

[Verse 1]
e|-------------------------------------------------------------|
B|--------1----------------1--------------1--------------------|
G|--------2----------------2p0------------0--------------------|
D|--------3----------------3--------------2--------------------|
A|--------3----------------3--------------3--------------------|
E|----------------------------------------3--------------------|
I've been waiting for the right time to tell you....

e|------------------3--------------------------|
B|------1-----------3-----------1---1---1----1-|
G|------2-----------0-----------2---2p0h2----2-|
D|------2-----------0-----------3---3---3----3-|
A|------0-----------2-----------3---3---3----3-|
E|------------------3--------------------------|
    and if I could change the world. 

[Verse 2]
e|--------------------------------------------1-----------------------------------------|
B|-1---------------------------1--------------1-----------------------------------1-----|
G|-2---------------------------0--------------2-----------------------------------0-----|
D|-3-------------------------2-2--------------3-----------------------------------2-----|
A|-3-------------------------3-3------------3-3-----------------------------------3-----|
E|---------------------------3-3------------1-1-----------------------------------3-----|
   You're like an ocean in a whisper. You've been waiting for these memories to change. 

e|---------------------3-----------------------------------3---------|
B|--------1------------3--------1---1---1---1-------1------3---------|
G|--------2------------0--------2---2p0h2---2-------0------0---------|
D|------2-2------------0--------3---3---3---3-------2------0---------|
A|------0-0------------2--------3---3---3---3-------3------2---------|
E|-------------------3-3----------------------------3------3---------|
    and if I could change the world I would,  I would, for you

[Chorus]
e|--------------------------------------------1------------------------------|
B|-----------1---1---------------1------------1---------------------1--------|
G|-----------2p0h2---------------0------------2---------------------0--------|
D|-----------3---3---------------2------------3---------------------2--------|
A|-----------3---3-------------3-3------------3---------------------3--------|
E|-----------------------------3-3------------1---------------------3--------|
And it's for you the sun is shining. It's for you the gravity is fallin.
 
e|-------------------3---------1--------3-----------------------3-----------------|
B|---------1---------3---------1--------3-------------1---------3-------1---------|
G|---------2---------0---------2--------0-------------2---------0-------2---------|
D|---------2---------0---------3--------0-------------2---------0-------0---------|
A|---------0---------2---------3--------2-------------0---------2-------3---------|
E|-------------------3---------1--------3-----------------------3-------3---------|
 It's for you this rain that leaves the sky and this world was made for you. 


[Verse 3]
e|--------------------------------------------1------------------------------|
B|-1---------------------------1--------------1------------------------1-----|
G|-2---------------------------0--------------2------------------------0-----|
D|-3-------------------------2-2--------------3------------------------2-----|
A|-3-------------------------3-3------------3-3------------------------3-----|
E|---------------------------3-3------------1-1------------------------3-----|
I remember the first time I met you. How your smiling face lit up the room. 

e|----------------------------------------------------------------3--------------------|
B|--------1--------------------------1--------1---------1---------3--------------------|
G|--------2--------------------------0--------0---------2---------0--------------------|
D|--------3------------------------2-2--------0---------2---------0--------------------|
A|--------3------------------------3-3--------2---------0---------2--------------------|
E|----------------------------------------------------------------3--------------------|
You never ask for much, you always give out a lot. And if I could change the world I would

[Bridge]
e|---------------------------------1-------------------------3-----------|
B|-1---------------1---------------1------------1------------3-----------|
G|-0---------------2---------------2------------0------------0-----------|
D|-2---------------2---------------3------------2------------0-----------|
A|-3---------------0---------------3------------3------------2-----------|
E|-3-------------------------------1-------------------------3-----------|
  For the longest time. Baby slow down, so that I can catch you. 

e|-------------------------------------------------3--------------------------|
B|-1---------------1---------------1---------------3-----------------------------|
G|-2---------------2---------------0---------------0-----------------------------|
D|-2---------------3---------------2---------------0-----------------------------|
A|-0---------------3---------------3---------------2-----------------------------|
E|---------------------------------3---------------3---------------------------|
  For the longest time. Baby slow down, cause I miss you.

[Instrumental]
e|-----------------------------------------|
B|--1--0--1--1---1-----1--0--1--1---1----1-|
G|--0--0--2--2p0h2-----0--0--2--2p0h2----0-|
D|--2--0--3--3---3-----2--2--3--3---3----2-|
A|--3--3--3--3---3-----3--3--3--3---3----3-|
E|--3--3---------------3--3--------------3-|

[Chorus/Outro]
e|--------------------------------------------1------------------------------|
B|-----------1---1---------------1------------1---------------------1--------|
G|-----------2p0h2---------------0------------2---------------------0--------|
D|-----------3---3---------------2------------3---------------------2--------|
A|-----------3---3-------------3-3------------3---------------------3--------|
E|-----------------------------3-3------------1---------------------3--------|
And it's for you the sun is shining. It's for you the gravity is fallin.
 
e|---------x---------3---------1--------3-------------x---------3-----------------|
B|---------1---------3---------1--------3-------------1---------3-------1---------|
G|---------2---------0---------2--------0-------------2---------0-------2---------|
D|---------2---------0---------3--------0-------------2---------0-------0---------|
A|---------0---------2---------3--------2-------------0---------2-------3---------|
E|---------x---------3---------1--------3-------------x---------3-------3---------|
 It's for you this rain that leaves the sky and this world was made for you.  


************************************

| x   Dead note
| h   Hammer-on
| p   Pull-off

************************************

            
            
Suggest correction
Creating personal tab
Creating personal tab
You can edit any tab online and save it as your Personal.

You can edit, replace or remove any tab part or add personal notes – all changes will be seen only by you.

Personal tabs can be accessed anytime from any device, even offline.
Learn more »
Give kudos to tab author, rate the tab!
1 2 3 4 5
comments
print report bad tab
guest
You may want to rate the tab now too:
select rating
Wanna post a correction for this tab? Suggest correction