Oops, an error
Loading. Please wait.

Road To Hell Tab

version 1
version 1

Whole song

Interactive

7,269 views 9 this week
no commentswrite comment
1 2 3 4 5
please rate
add to favorites
launch autoscroll
font size
0
reset
how to read this tab
guitar tuner
Tab Pro tools
  • play this tab
  • loop segment
  • change instrument
  • show fretboard
  • metronome
×
Best way to learn
"Road To Hell"
Autoscroll
slow
fast
+/-
esc
set tempo
stop
                        BRUCE DICKINSON - ROAD TO HELL        
                       From the Album ACCIDENT OF BIRTH                          
                             Copyright 1997 BMG
                                       
                         Version 1.6 - January 2000

Transcribed By: Ronaldo J. Jappe
Corrected By:   Jeremy Disten

For Questions, Comments, Corrections, or Newest Version;
       please contact Ronaldo Jappe at jappe@azcomnet.com.br 
                      Jeremy Disten at jdustpan@hotmail.com

Check Out DEATH WARP, With More Transcriptions On It:
               http://tiger.towson.edu/~dalvis1

Check Out 's Web Page, With More Transcriptions On It:
               /index.html

Check out FISON (Ronaldo's Band) at:
               http://www.geocities.com/SunsetStrip/Stadium/1990/

Join the death/black tab mailing list by
  emailing:  

.  - palm mute           * - see comment
~  - vibrato             x - percussion note
/  - slide up to         \ - slide down to
h  - hammer on           p - pull off
b  - bend                b+r - bend and release
"  - tremolo note        ph - pinch harmonic
t  - tapping             sh - semi harmonic

Very minor corrections done to Riff A

Tune To Dropped D (D,A,D,G,B,E)

Riff A
|-----------------------------------------|
|-----------------------------------------|
|-----------------------------------------|Gtr I
|-----------------7---9~--9--10--9--7-----|
|--10--------10------------------------9--|
|-----------------------------------------|
|                                         |
|-----------------------------------------|
|-----------------------------------------|
|-----------------------------------------|Gtr II
|-----------------4---5~--5---7--5--4-----|
|---7---------7------------------------5--|
|-----------------------------------------|


  ____________________________________________
 |1st, & 3rd time
|--------------------------------------------|
|--------------------------------------------|
|---------------------9--7------9--7---------|Gtr I
|---------------------------10--------10--9--|
|-(9)~~~------------9------------------------|
|-------------------.------------------------|
|                                            |
|--------------------------------------------|
|--------------------------------------------|
|---------------------5--4------5--4---------|Gtr II
|----------------------------7---------7--5--|
|-(5)~~~------------5------------------------|
|-------------------.------------------------|


  ________________________________________
 |2nd Time
|-------------------------------------------|
|-------------------------------------------|
|-------------------------------------------|Gtr I
|--------------------10--9--7--10--9--7-----|
|-(9)~~~-----------9---------------------9--|
|------------------.------------------------|
|                                           |
|-------------------------------------------|
|-------------------------------------------|
|-------------------------------------------|Gtr II
|---------------------5--4------5--4--------|
|-(5)~~~-----------5--------7---------7--5--|
|------------------.------------------------|


  ________________________________________
 |4th Time
|-----------------------------------------------|
|-----------------------------------------------|
|-----------------------------------------------|Gtr I
|---------------------10--9--7--10--9--7----7-9-|
|-(9)~~~------------9---------------------9-----|
|-------------------.---------------------------|
|                                               |
|-----------------------------------------------|
|-----------------------------------------------|
|-----------------------------------------------|Gtr II
|----------------------5--4------5--4-------4---|
|-(5)~~~------------5--------7---------7--5---7-|
|-------------------.---------------------------|


Riff B.1 (Play 3 Times)
|--------------------------------------------------|
|--------------------------------------------------|
|*-4--------4--------4--------4--------4----(2)---*|Gtr I
|*-2--------2--------2--------2--------2----(0)---*|
|--2--------2--------2--------2--------2-----0-----|
|--2--2--2--2--2--2--2--2--2--2--2--2--2--2--0-----|
|                                                  |
|--------------------------------------------------|
|--------------------------------------------------|
|*------------------------------------------------*|Gtr II
|*-2----------------------------------------------*|
|--2--------2--------2--------2--------2-----0-----|
|--2--2--2--2--2--2--2--2--2--2--2--2--2--2--0-----|
  Slow  -  ly      bleed   -  ing      watch the
  Vor   -  tex      feed   -  ing      like   a
  Swer  - ling      vul    - ture       on   your


Riff B.2 (1 Time)
|--------------------------------------------------|
|--------------------------------------------------|
|--4--------4--------4--------4--------------------|Gtr I
|--2--------2--------2--------2--------0-----------|  
|--2--------2--------2--------2-----------2--1--0--|
|--2--2--2--2--2--2--2--2--2--2--2--2--------------|
|                                                  |  
|--------------------------------------------------|
|--------------------------------------------------|
|--------------------------------------------------|Gtr II
|--------------------------------------0-----------|  
|--2--------2--------2--------2-----------2--1--0--|
|--2--2--2--2--2--2--2--2--2--2--2--2--------------|
  Face.....


Repeat Riff B.1 (3 Times)


Riff B.3 (1 Time)
|---------------------------------------------|
|---------------------------------------------|
|--4--------4--------4-----9------7------5----|Gtr I
|--2--------2--------2-----9------7------5----|
|--2--------2--------2-----7------5------3----|
|--2--2--2--2--2--2--2--2---------------------|
|                                             |
|---------------------------------------------|
|---------------------------------------------|
|---------------------------------------------|Gtr II
|--------------------------2------0------5----|
|--2--------2--------2-----2------0------3----|
|--2--2--2--2--2--2--2--2---------------------|
  Blind........


Riff C
|--------------------------------------------------------|
|--------------------------------------------------------|
|--4-----------(4)-----------------------(4)-------------|Gtr I
|--4-----------(4)-----------------------(4)-------------|
|--2-----------(2)-----------------------(2)-------------|
|--------------------------------------------------------|
|                                                        | 
|--------------------------------------------------------|
|--------------------------------------------------------|
|--------------------------------------------------------|Gtr II
|--4-----------(4)-----------------------(4)-------------|
|--2-----------(2)-----------------------(2)-------------|
|--------------------------------------------------------|
   Father forgive my sins              give    me   the


|-----0--------------------------------------------------|
|-----0--------------------------------------------------|
|--5------------------------------------2-----2-----7----|Gtr I
|--5------------------------------------2-----2-----7----|
|--3------------------------------------0--0--0--0--5----|
|------------------------------------------.-----.-------|
|                                                        |
|--------------------------------------------------------|
|--------------------------------------------------------|
|-----5--------------------------------------------------|Gtr II
|--5--5---------------------------------2-----2-----7--\-|
|--3------------------------------------0--0--0--0--5--\-|
|------------------------------------------.-----.-------|
  nails           I'll hammer them     in


Repeat Riff A:


Riff D.1 (With Flanger) (Play 3 Times)
|--------------------------------------------------|
|--------------------------------------------------|
|*------------------------------------------------*|Gtrs I
|*------------------------------------------------*|  & II
|--2--------2--------2--------2--------2-----0-----|
|--2--2--2--2--2--2--2--2--2--2--2--2--2--2--0-----|


Riff D.2 (play 1 Time)
|--------------------------------------------------|
|--------------------------------------------------|
|--------------------------------------------------|Gtrs I 
|--------------------------0-----------0-----------|  & II
|--2--------2--------2--------2--1--0-----2--1-----|
|--2--2--2--2--2--2--2--------------------------5--|


Repeat Riff B
Repeat Riff A

 
Riff E (Guitar Solo)
|--t-phph---t-phph---t-phph---t-phph---t-phph---t-phph--t--phph---t--phph-|
|-7-40404--7-40404--7-40404--7-40404--8-50505--8-50505-10-70707--10-70707-|
|-------------------------------------------------------------------------|
|-------------------------------------------------------------------------|
|-------------------------------------------------------------------------|
|-------------------------------------------------------------------------|
|                                                                         |
|-------------------------------------------------------------------------|
|-------------------------------------------------------------------------|
|-4-4-4-4-4-4-------------------------7-7-7-7-7---------9-9-9-9-9---------|
|-4-4-4-4-4-4-------------------------7-7-7-7-7---------9-9-9-9-9---------|
|-2-2-2-2-2-2-------------------------5-5-5-5-5---------7-7-7-7-7---------|
|-------------------------------------------------------------------------|


|--t-phph---t-phph---t-phph---t-phph---t-phph---t-phph--t--phph---t--phph-|
|-7-40404--7-40404--7-40404--7-40404--8-50505--8-50505-10-70707--10-70707-|
|-------------------------------------------------------------------------|
|-------------------------------------------------------------------------|
|-------------------------------------------------------------------------|
|-------------------------------------------------------------------------|
|                                                                         |
|-------------------------------------------------------------------------|
|-------------------------------------------------------------------------|
|-4-4-4-4-4-4-------------------------5-5-5-5-5---------2-2-2-2-2---------|
|-4-4-4-4-4-4-------------------------5-5-5-5-5---------2-2-2-2-2---------|
|-2-2-2-2-2-2-------------------------3-3-3-3-3---------0-0-0-0-0---------|
|-------------------------------------------------------------------------|

Repeat 1st Line of Solo (1 Time)

|--t-ph---t-ph---t-ph---t-ph---t-ph---t-ph--t--phph---t--phph-|
|-7-404--8-505--7-404--8-505-10-707--8-505-10-70707--12-80808-|
|-------------------------------------------------------------|Gtr I
|-------------------------------------------------------------|
|-------------------------------------------------------------|
|-------------------------------------------------------------|
|                                                             |
|-------------------------------------------------------------|
|-------------------------------------------------------------|
|-4------4------4------4------4--------5--5--5------7---7---7-|Gtr II
|-4------4------4------4------4--------5--5--5------7---7---7-|
|-2------2------2------2------2--------3--3--3------5---5---5-|
|-------------------------------------------------------------|


                                                              
|----------12--14--15--14--12\-7---------------------------------|
|-15fb----------------------------8p7----------------------------|
|--------------------------------------9p7---7-------------------|Gtr I
|------------------------------------------9---9--8--7\5---------|
|---------------------------------------------------------7-/9~--|
|----------------------------------------------------------------|
|                                                                |
|----------------------------------------------------------------|
|----------------------------------------------------------------|
|----------------------------------------------------------------|Gtr II
|--2------------------------------------5--------------------7---|
|--2------------------------------------5--------------------7---|
|--2------------------------------------5--------------------7---|

                                                      
|----------------------------------------------|
|----------------------------------------------|
|-------------------------------7---9~----\----|Gtr I
|----h--p-------------7--9--10-----------------|
|-9-9-10-9--7--9--10---------------------------|
|----------------------------------------------|
|                                              |
|----------------------------------------------|
|----------------------------------------------|
|----------------------------------------------|Gtr II
|-----2----------------------------------------|
|-----2----------------------------------------|
|-----2----------------------------------------|

                                                  
|----------------------------------------------|
|-8--------8p-7--------------------------------|
|-------9-----------11--11\7~------------------|Gtr I
|----9-----------7-----------------------------|
|----------------------------------------------|
|----------------------------------------------|
|                                              |
|----------------------------------------------|
|----------------------------------------------|
|-5----------------------2---------------------|Gtr II
|-5----------------------2---------------------|
|-3----------------------0---------------------|
|----------------------------------------------|


          h  p              h  p                    
|-------15-19-15----------15-19-15----------15--|
|----17----------17----17----------17----17-----|
|/16----------------16----------------16--------|Gtr I
|-----------------------------------------------|
|-----------------------------------------------|
|-----------------------------------------------|
|                                               |
|-----------------------------------------------|
|-----------------------------------------------|
|-----------------------------------------------|Gtr II
|-------2---------------------(2)---------------|
|-------2---------------------(2)---------------|
|-------2---------------------(2)---------------| 


  h  p              h  p
|--19-15----------15-19-15----------15----------|
|--------17----17----------17----17-------------|
|-----------16----------------16----------------|Gtr I
|-----------------------------------------------|
|-----------------------------------------------|
|-----------------------------------------------|
|                                               |
|-----------------------------------------------|
|-----------------------------------------------|
|-----------------------------------------------|
|------------------------------------5----------|
|------------------------------------5----------|
|------------------------------------5----------|


     p                                                             
|--19-15-----------------------------19fb--------19fb-----|
|--------17-----------------------------------------------|
|-----------17p-0h-16p-0h-17p-0h-16-----------------------|Gtr I
|---------------------------------------------------------|
|---------------------------------------------------------|
|---------------------------------------------------------|
|                                                         |
|---------------------------------------------------------|
|---------------------------------------------------------|
|---------------------------------------------------------|Gtr II
|-------------------------------------7-------------------|
|-------------------------------------7-------------------|
|-------------------------------------7-------------------|


                                                                
|-15fb---15--14--12--------p---------------------------------------|
|--------------------15--15-14-12----------------------------------|
|---------------------------------15--14---12------14-----12-------|Gtr I
|----------------------------------------------14------14----------|
|------------------------------------------------------------14-14-|
|------------------------------------------------------------------|
|                                                                  |
|------------------------------------------------------------------|
|------------------------------------------------------------------|
|-------------------------------------------------------------5----|Gtr II
|-2-----------------------------------------------------------5----|
|-2-----------------------------------------------------------3----|
|-2----------------------------------------------------------------|


                                                                         
|----------------------------------------------------|
|----------------------------------------------------|
|----------------------------------------------------|Gtr I
|--12------------------------------------------------|
|------14--13--12\-10--7--10--9~--------------(9)\---|
|----------------------------------------------------|
|                                                    |
|----------------------------------------------------|
|----------------------------------------------------|
|-----------------------------2---------------(2)----|Gtr II
|-----------------------------2---------------(2)----|
|-----------------------------0---------------(0)----|
|----------------------------------------------------|

Repeat Riff C
Repeat Riff A
Repeat Riff A

Riff F
|-------------------------------------------------|
|-------------------------------------------------|
|-------------------------------------------------|Gtr I
|--5--4-----5--4-----5--4-----5--4-----5--4-------|
|--------7--------7--------7--------7--------7----|
|-------------------------------------------------|
|                                                 |
|-------------------------------------------------|
|-------------------------------------------------|
|-------------------------------------------------|Gtr II
|--2--0-----2--0-----2--0-----2--0-----2--0-------|
|--------2--------2--------2--------2--------2----|
|-------------------------------------------------|


                                                                               
|-------------------------------------------------|
|-------------------------------------------------|
|--4--2-----4--2-----4--2-----4--2-----4--2-------|Gtr I
|--------5--------5--------5--------5--------5----|
|-------------------------------------------------|
|-------------------------------------------------|
|                                                 |
|-------------------------------------------------|
|-------------------------------------------------|
|-------------------------------------------------|Gtr II
|--2--0-----2--0-----2--0-----2--0-----2--0-------|
|--------2--------2--------2--------2--------2----|
|-------------------------------------------------|

                                                                               
|-------------------------------------------------|
|-------------------------------------------------|
|--9--7-----9--7-----9--7-----9--7-----9--7-------|Gtr I
|--------9--------9--------9--------9--------9----|
|-------------------------------------------------|
|-------------------------------------------------|
|                                                 |
|-------------------------------------------------|
|-------------------------------------------------|
|-------------------------------------------------|Gtr II
|--2--0-----2--0-----2--0-----2--0-----2--0-------|
|--------2--------2--------2--------2--------2----|
|-------------------------------------------------|


|---------------|
|---------------|
|--12--12--12-\-|Gtr II
|--12--12--12-\-|
|--10--10--10-\-|
|---------------|
|               |
|---------------|
|---------------|
|---9---9---9-\-|Gtr II
|---9---9---9-\-|
|---7---7---7-\-|
|---------------|


Check Out DEATH WARP, With More Transcriptions On It:
               http://tiger.towson.edu/~dalvis1

Check Out 's Web Page, With More Transcriptions On It:
               /index.html
comments
We did not receive enough feedback on this tab! Please rate:
print report bad tab
1 2 3 4 5
I want to post or [tab]
guest
You may want to rate the tab now too:
select rating
Please do not post tabs as comments. Select "correction" instead!