Oops, an error
Loading. Please wait.

Tossed Salad And Scrambled Eggs Theme From Frasier Bass Tab

4,965 views 24 this week
no commentswrite comment
1 2 3 4 5
accurate
x 5
add to favorites
launch autoscroll
font size
0
reset
guitar tuner
Autoscroll
slow
fast
+/-
esc
set tempo
stop
Help us to improve Ultimate-Guitar.com Take our survey!
×
Contributor
Difficulty
intermediate
Tossed Salad And Scrambled Eggs
(Theme from Frasier)

Words and Music by Bruce Miller & Darryl Phinnessee


This is a great fun bass part to play to a really good theme tune...enjoy!

I think this is pretty accurate, please let me know if you think it needs a tweak or two.

Comments welcome tweet me at http://twitter.com/morleysmith



[Intro]                                                 Hey baby, I 
 |       |       |       |        |       |       |       |        
|3---3---------------------------|--------------------------------|
|--------0---1-----2---3---------|3---3---------------------------|
|--------------------------------|--------------------------------|
|--------------------------------|--------3-------4-------5-------|
 
 hear the blues a-callin',    Tossed salad   and  scrambled 
 |       |       |       |        |       |       |       |        
|3-------3-----------------------|----------------6-------5-------|
|----------------4-------4-------|6-------6-----------------------|
|--------------------------------|--------------------------------|
|--------------------------------|--------------------------------|


eggs                              Oh My (mercy) 
 |       |       |       |        |       |       |       |        
|3-----------------------0-------|3---3---------------------------|
|--------0-------3---------------|--------0-------3-------2-------|
|--------------------------------|--------------------------------|
|--------------------------------|--------------------------------|


 And maybe I seem a bit confused,                Yeah maybe,
 |       |       |       |        |       |       |       |        
|--------3-----------------------|--------1-----------------------|
|1---------------1-------0---0---|--------------------------------|
|--------------------------------|4---------------4---------------|
|--------------------------------|--------------------4---5-------|

         but I got you pegged!                   Ha, Ha, Ha, Ha!  
 |       |       |       |        |       |       |       |        
|--------------------------------|3-------2-------1-------0-------|
|----------------3-------5-------|--------------------------------|
|1-------5-----------------------|--------------------------------|
|--------------------------------|--------------------------------|
 
But I don't know what to do      with those tossed salads and scrambled eggs. 
 |       |       |       |        |       |       |       |        
|--------------------------------|--------------------------------|
|4-------4-------3-------3-------|2---1---------------------------|
|--------------------------------|--------4-------1---------------|
|--------------------------------|------------------------1---4---|
 
                                 (hold)  They're callin' again.       
 |       |       |       |        |       |       |       |        
|------------7-8-10--11--12------|13------------------------------|
|--------------------------------|----------------6---------------|
|--------------------------------|--------------------------------|
|4-------------------------------|--------------------------------|



(Repeat until end) 
 |       |       |       |        |       |       |       |        
|3-------------------------------|3-------------------------------|
|--------0-------3-------5-------|--------0-------3-------5-------|
|--------------------------------|--------------------------------|
|--------------------------------|--------------------------------|

Good night, Seattle, we love you. 
What is a boy to do. Good night. 
Frasier has left the building. 
Thank You! 
Scambled eggs all over my face. What is a boy to do. Goodnight, everybody. 
See you next year, we love ya. 

----------------------------------------------------------------------
Bruce Miller's official website
http://www.brucemillermusic.com/bio.html
comments
print report bad tab
I want to post or [tab]
guest
You may want to rate the tab now too:
select rating
Please do not post tabs as comments. Select "correction" instead!