Oops, an error
Loading. Please wait.

Born In The Usa chords

version 3
version 3

Whole song

  • The tab is on 2nd fret while other versions are with no capo.

Video

343 views 36 this week
no commentswrite comment
1 2 3 4 5
2 more votes to show rating
add to favorites
×
Save as Personal and add changes to this tab that will be seen only by you. Learn more ›
×
You can save this tab as Personal to edit and correct it or add notes. All changes will be seen only by you. Learn more »
launch autoscroll
font size
0
reset
transpose
0
reset
display chords
guitar tuner
backing track
0:00
0:00
edit
Autoscroll
slow
fast
+/-
esc
set tempo
stop
About this tab version
The tab is on 2nd fret while other versions are with no capo. Was this info helpful? Yes No
Strumming
There is no strumming pattern for this song yet. and get +5 IQ
Song:Born In The USA
Artist: Bruce Springsteen

[Intro]
E|--------------------------------|4-------------------------------|
B|--------7---------------5---7---|----5-------7-------------------|
G|--------------------------------|--------------------------------|
D|--------------------------------|--------------------------------|
A|--------------------------------|--------------------------------|
E|7-------------------------------|--------------------------------|

E|--------------------------------|4-------------------------------|
B|--------7---------------5---7---|----7-------4-------------------|
G|--------------------------------|------------------------6---4---|
D|--------------------------------|--------------------------------|
A|--------------------------------|--------------------------------|
E|7-------------------------------|--------------------------------|

A
Born down in a dead man's town
A
The first kick I took was when I hit the ground
D
End up like a dog that's been beat too much
D
Till you spend half your life just covering up

[Chorus]
A
Born in the U.S.A., I was born in the U.S.A.
      D                                     A
I was born in the U.S.A., born in the U.S.A. now

[Verse]
A
Got in a little hometown jam
A
So they put a rifle in my hand
D
Sent me off to a foreign land
D
To go and kill the yellow man

[Chorus]
A
Born in the U.S.A., I was born in the U.S.A.
      D                                     A
I was born in the U.S.A., born in the U.S.A. now

[Verse]
A
Come back home to the refinery

Hiring man said "Son if it was up to me"
D
Went down to see my V.A. man

He said "Son, don't you understand"(Play the intro again now)

[Verse]
A
I had a brother at Khe Sahn
A
Fighting off the Viet Cong
D
They're still there, he's all gone

A
He had a woman he loved in Saigon
A                                       | D | D | D | D |
I got a picture of him in her arms now
A
Down in the shadow of the peni tentiary
           A
Out by the gas fires of the refinery
    D
I'm ten years burning down the road
                        D
Nowhere to run ain't got nowhere to go

[Chorus]
A
Born in the U.S.A., I was born in the U.S.A.
D                                                      A
Born in the U.S.A., I'm a long gone Daddy in the U.S.A. now
A

Born in the U.S.A., Born in the U.S.A.
D
Born in the U.S.A., I'm a cool rocking Daddy in the U.S.A. now

[Outro]
| A | A | A | A | D | D | D | D |
             OR
E|--------------------------------|4-------------------------------|
B|--------7---------------5---7---|----5-------7-------------------|
G|--------------------------------|--------------------------------|
D|--------------------------------|--------------------------------|
A|--------------------------------|--------------------------------|
E|7-------------------------------|--------------------------------|

E|--------------------------------|4-------------------------------|
B|--------7---------------5---7---|----7-------4-------------------|
G|--------------------------------|------------------------6---4---|
D|--------------------------------|--------------------------------|
A|--------------------------------|--------------------------------|
E|7-------------------------------|--------------------------------|
Suggest correction
Creating personal tab
Creating personal tab
You can edit any tab online and save it as your Personal.

You can edit, replace or remove any tab part or add personal notes – all changes will be seen only by you.

Personal tabs can be accessed anytime from any device, even offline.
Learn more »
Give kudos to tab author, rate the tab!
1 2 3 4 5
comments
print report bad tab
guest
You may want to rate the tab now too:
select rating
Wanna post a correction for this tab? Suggest correction