Oops, an error
Loading. Please wait.
We have an official Born To Run tab made by UG professional guitarists. Check out the tab »
×
36,545 views 24 this week
2 commentsread comments
1 2 3 4 5
x 5
add to favorites
×
Save as Personal and add changes to this tab that will be seen only by you. Learn more ›
×
You can save this tab as Personal to edit and correct it or add notes. All changes will be seen only by you. Learn more »
launch autoscroll
font size
0
reset
how to read this tab
guitar tuner
backing track
0:00
0:00
edit
Autoscroll
slow
fast
+/-
esc
set tempo
stop
Difficulty
                                   BORN TO RUN
                        As recorded by Bruce Springsteen
                        (From the 1975 Album BORN TO RUN)

Words and Music by Bruce Springsteen
Transcribed by Slowhand (http://www.instantpowertabs.de.vu)

Gtr I (E A D G B E) - 'Steven Van Zandt (Gtr.1)'
Gtr II (E A D G B E) - 'Bruce Springsteen (Gtr.2)'
Gtr III (E A D G B E) - 'Clarence Clemons (Sax. arr. for Gtr.)'

 Intro
  Q=144
 4/4
  Gtr I
  W          +Q   E E +Q   Q
|-0--------|-(0)--------------|
|-0--------|-(0)--------------|
|-1--------|-(1)----2-(2)--1--|
|-2--------|-(2)--------------|
|-2--------|-(2)--2-----------|
|-0--------|-(0)--------------|
|
| Gtr III
| W          +H.           Q
|----------|------------------|
|-5--------|-(5)--------------|
|----------|------------------|
|----------|------------------|
|----------|------------------|
|----------|------------------|


  W          H    H      W          +Q   E E +Q   Q
|----------|-----------|-0--------|-(0)---------------|
|----------|-----------|-0--------|-(0)---------------|
|----------|-----------|-1--------|-(1)----2-(2)--1---|
|----------|-2----4----|-2--------|-(2)---------------|
|-4--------|-----------|-2--------|-(2)--2------------|
|----------|-----------|-0--------|-(0)---------------|
|
| W          W           W          +W
|----------|-----------|----------|-------------------|
|----------|-----------|----------|-------------------|
|----------|-----------|-9--------|-(9)---------------|
|-7--------|-9---------|----------|-------------------|
|----------|-----------|----------|-------------------|
|----------|-----------|----------|-------------------|


                          1st & 2nd Verses
  Gtr I
                           PM------------------------------|
  W          H    H        E E E E E E E E   E E E E E E E E
|----------|-----------||------------------|------------------|
|----------|-----------||o-----------------|------------------|
|----------|-----------||------------------|------------------|
|----------|-2----4----||------------------|------------------|
|-4--------|-----------||o-----------------|------------------|
|----------|-----------||--0-0-0-0-0-0-0-0-|-0-0-0-0-0-0-0-0--|
|
| Gtr II
| W          H    H        E E E E E E E E   E E E E E E E E
|----------|-----------||--0-0-0-0-0-0-0-0-|-0-0-0-0-0-0-0-0--|
|----------|-----------||o-0-0-0-0-0-0-0-0-|-0-0-0-0-0-0-0-0--|
|----------|-----------||--1-1-1-1-1-1-1-1-|-1-1-1-1-1-1-1-1--|
|----------|-2----4----||--2-2-2-2-2-2-2-2-|-2-2-2-2-2-2-2-2--|
|-4--------|-----------||o-----------------|------------------|
|----------|-----------||------------------|------------------|
|
| Gtr III
| W          W             W                 W
|----------|-----------||------------------|------------------|
|----------|-----------||o-----------------|------------------|
|----------|-----------||------------------|------------------|
|-7--------|-9---------||------------------|------------------|
|----------|-----------||o-----------------|------------------|
|----------|-----------||------------------|------------------|


  PM--------------------------------------------------------------------|
  E E E E E E E E   E E E E +E  E E E   E E E E E E E E   E E E E E E E E
|-----------------|-------------------|-----------------|------------------|
|-----------------|-------------------|-----------------|------------------|
|-----------------|-------------------|-----------------|------------------|
|-----------------|-------------------|-----------------|------------------|
|-0-0-0-0-0-0-0-0-|-2-2-2-2-(2)-2-2-2-|-----------------|------------------|
|-----------------|-------------------|-0-0-0-0-0-0-0-0-|-0-0-0-0-0-0-0-0--|
|
| E E E E E E E E   E E E E  E  E E E   E E E E E E E E   E E E E E E E E
|-0-0-0-0-0-0-0-0-|-0-0-0-0--0--0-0-0-|-0-0-0-0-0-0-0-0-|-0-0-0-0-0-0-0-0--|
|-0-0-0-0-0-0-0-0-|-0-0-0-0--0--0-0-0-|-0-0-0-0-0-0-0-0-|-0-0-0-0-0-0-0-0--|
|-2-2-2-2-2-2-2-2-|-4-4-4-4--4--4-4-4-|-1-1-1-1-1-1-1-1-|-1-1-1-1-1-1-1-1--|
|-2-2-2-2-2-2-2-2-|-4-4-4-4--4--4-4-4-|-2-2-2-2-2-2-2-2-|-2-2-2-2-2-2-2-2--|
|-----------------|-------------------|-----------------|------------------|
|-----------------|-------------------|-----------------|------------------|


                                      $
  PM--------------------------------|
  E E E E E E E E   E E E E +E  E E E
|-----------------|-------------------||
|-----------------|-------------------||
|-----------------|-------------------||
|-----------------|-------------------||
|-0-0-0-0-0-0-0-0-|-2-2-2-2-(2)-2-2-2-||
|-----------------|-------------------||
|
| E E E E E E E E   E E E E  E  E E E
|-0-0-0-0-0-0-0-0-|-0-0-0-0--0--0-0-0-||
|-0-0-0-0-0-0-0-0-|-0-0-0-0--0--0-0-0-||
|-2-2-2-2-2-2-2-2-|-2-2-2-2--2--2-2-2-||
|-2-2-2-2-2-2-2-2-|-2-2-2-2--2--2-2-2-||
|-----------------|-------------------||
|-----------------|-------------------||
|
| Gtr III
| W                 W
|-----------------|-------------------||
|-----------------|-------------------||
|-----------------|-------------------||
|-----------------|-------------------||
|-----------------|-------------------||
|-----------------|-------------------||


 Pre-Chorus
   E  E  E  E  E  E  E  E    E  E  E  E  E  E  E  E
|-------12----------12----|-------12----------12-----|
|----14----14----14----14-|----14----14----14----14--|
|-14----------14----------|-13----------13-----------|
|-------------------------|--------------------------|
|-------------------------|--------------------------|
|-------------------------|--------------------------|
|
|  W                         W
|--0----------------------|--------------------------|
|--2----------------------|--5-----------------------|
|--2----------------------|--6-----------------------|
|--2----------------------|--6-----------------------|
|--0----------------------|--4-----------------------|
|-------------------------|--4-----------------------|
|
|  W                         W
|-------------------------|--------------------------|
|-------------------------|--------------------------|
|-------------------------|--------------------------|
|--7----------------------|--6-----------------------|
|-------------------------|--------------------------|
|-------------------------|--------------------------|


   E  E  E  E  E  E  E  E    E  E  E  E  E  E  E  E
|-------12----------12----|-------12----------12----|
|----14----14----14----14-|----14----14----14----14-|
|-11----------11----------|-13----------13----------|
|-------------------------|-------------------------|
|-------------------------|-------------------------|
|-------------------------|-------------------------|
|
|  W                         W
|-------------------------|-------------------------|
|--2----------------------|--5----------------------|
|--2----------------------|--6----------------------|
|--4----------------------|--6----------------------|
|--4----------------------|--4----------------------|
|--2----------------------|--4----------------------|

|
|  W                         W
|-------------------------|-------------------------|
|-------------------------|-------------------------|
|-------------------------|-------------------------|
|--4----------------------|--6----------------------|
|-------------------------|-------------------------|
|-------------------------|-------------------------|


  Q.    E  +H       Q   H.
|-----------------|----10----------|
|-9----12-(12)----|----10----------|
|-----------------|----11----------|
|-9----14-(14)----|----12----------|
|-----------------|----------------|
|-----------------|----------------|
|
| W                 Q   Q   +H
|-0---------------|-----2---(2)----|
|-0---------------|-----3---(3)----|
|-1---------------|-----2---(2)----|
|-2---------------|-----2---(2)----|
|-2---------------|----------------|
|-0---------------|-----0---(0)----|
|
| W                 Q   Q   +H
|-----------------|----------------|
|-----------------|----------------|
|-----------------|-----7---(7)----|
|-----------------|----------------|
|-7---------------|----------------|
|-----------------|----------------|


   E  E  E  E  E  E  E  E    E  E  E  E  E  E  E  E
|-------12----------12----|-------12----------12----|
|----14----14----14----14-|----14----14----14----14-|
|-14----------14----------|-13----------13----------|
|-------------------------|-------------------------|
|-------------------------|-------------------------|
|-------------------------|-------------------------|
|
|  W                         W
|--0----------------------|-------------------------|
|--2----------------------|--5----------------------|
|--2----------------------|--6----------------------|
|--2----------------------|--6----------------------|
|--0----------------------|--4----------------------|
|-------------------------|--4----------------------|
|
|  W                         W
|-------------------------|-------------------------|
|-------------------------|-------------------------|
|-------------------------|-------------------------|
|--7----------------------|--6----------------------|
|-------------------------|-------------------------|
|-------------------------|-------------------------|


   E  E  E  E  E  E  E  E    E  E  E  E  E  E  E  E
|-------12----------12----|-------12----------12-----|
|----14----14----14----14-|----14----14----14----14--|
|-11----------11----------|-13----------13-----------|
|-------------------------|--------------------------|
|-------------------------|--------------------------|
|-------------------------|--------------------------|
|
|  W                         W
|-------------------------|--------------------------|
|--2----------------------|--5-----------------------|
|--2----------------------|--6-----------------------|
|--4----------------------|--6-----------------------|
|--4----------------------|--4-----------------------|
|--2----------------------|--4-----------------------|
|
|  W                         W
|-------------------------|--------------------------|
|-------------------------|--------------------------|
|-------------------------|--------------------------|
|--4----------------------|--6-----------------------|
|-------------------------|--------------------------|
|-------------------------|--------------------------|


                                                               To Coda
  Q.    E  +H       Q.    E  +H       Q.    E  +H        Q.    E  +H
|-----------------|-----------------|-----------------|-12----------------||
|-9----12-(12)----|-9----12-(12)----|-9----12-(12)----|--9----12-(12)-----||
|-----------------|-----------------|-----------------|--------9--(9)-----||
|-9----14-(14)----|-9----14-(14)----|-9----14-(14)----|-------------------||
|-----------------|-----------------|-----------------|-------------------||
|-----------------|-----------------|-----------------|-------------------||
|
| W                 W                 W                  W
|-0---------------|-0---------------|-0---------------|--0----------------||
|-0---------------|-0---------------|-0---------------|--0----------------||
|-1---------------|-4---------------|-1---------------|--4----------------||
|-2---------------|-2---------------|-2---------------|--4----------------||
|-2---------------|-4---------------|-0---------------|--2----------------||
|-0---------------|-----------------|-----------------|-------------------||
|
| W                 W                 W                  W
|-----------------|-----------------|-----------------|-------------------||
|-----------------|-----------------|-----------------|-------------------||
|-----------------|-----------------|-----------------|-------------------||
|-----------------|-----------------|-----------------|-------------------||
|-7---------------|-9---------------|-7---------------|--9----------------||
|-----------------|-----------------|-----------------|-------------------||


 Chorus
  Gtrs I, II
  W          +Q   E E +Q   Q    W          H    H
|-0--------|-(0)--------------|----------|-----------|
|-0--------|-(0)--------------|----------|-----------|
|-1--------|-(1)----2-(2)--1--|----------|-----------|
|-2--------|-(2)--------------|----------|-2----4----|
|-2--------|-(2)--2-----------|-4--------|-----------|
|-0--------|-(0)--------------|----------|-----------|
|
| Gtr III
| W          +H.           Q    W          W
|----------|------------------|----------|-----------|
|----------|------------------|----------|-----------|
|-9--------|-(9)--------------|----------|-----------|
|----------|------------------|-7--------|-9---------|
|----------|------------------|----------|-----------|
|----------|------------------|----------|-----------|


                                          1.
  W          +Q   E E +Q   Q    W          H    H
|-0--------|-(0)--------------|----------|------------||
|-0--------|-(0)--------------|----------|-----------o||
|-1--------|-(1)----2-(2)--1--|----------|------------||
|-2--------|-(2)--------------|----------|-2----4-----||
|-2--------|-(2)--2-----------|-4--------|-----------o||
|-0--------|-(0)--------------|----------|------------||
|
| W          +W                 W          W
|----------|------------------|----------|------------||
|----------|------------------|----------|-----------o||
|-9--------|-(9)--------------|----------|------------||
|----------|------------------|-7--------|-9----------||
|----------|------------------|----------|-----------o||
|----------|------------------|----------|------------||


                  Saxophone Solo
  2.
  Gtrs I, II
  H    H             Q.        E       +Q      Q
|---------------||---0---------0-------(0)-----0-------|
|---------------||---0---------0-------(0)-----0-------|
|---------------||---1---------1-------(1)-----1-------|
|-2----4--------||---2---------2-------(2)-----2-------|
|---------------||---2---------2-------(2)-----2-------|
|---------------||---0---------0-------(0)-----0-------|
|
| Gtr III
| H    Q  E S S    a E   E  E  S  S  a  E   E  E  S  S
|-----------7-7-||-------------------------------------|
|---------------||-8s9--12-12-12-12-12s14--12-12-12-12-|
|---------------||-------------------------------------|
|-9-------------||-------------------------------------|
|---------------||-------------------------------------|
|---------------||-------------------------------------|


    Q.        E    +H                  Q.        E       +Q        Q
|---0---------0----(0)-------------|---0---------0-------(0)-------0----|
|---0---------0----(0)-------------|---0---------0-------(0)-------0----|
|---1---------1----(1)-------------|---2---------2-------(2)-------2----|
|---2---------2----(2)-------------|---2---------2-------(2)-------2----|
|---2---------2----(2)-------------|---0---------0-------(0)-------0----|
|---0---------0----(0)-------------|------------------------------------|
|
| a E   E  E  S  S  S  S E E  S  S   a E   E  E  S  S  a  E  E  a  E  E
|----------------------------------|------------------------------------|
|-8s9--12-12-12-12-----------12-12-|-8s9--12-12-12-12-12s14s12-12s14s12-|
|------------------12s11-9-9-------|------------------------------------|
|----------------------------------|------------------------------------|
|----------------------------------|------------------------------------|
|----------------------------------|------------------------------------|


  Q.             E    +H
|-0--------------0----(0)--------------|
|-0--------------0----(0)--------------|
|-4--------------4----(4)--------------|
|-4--------------4----(4)--------------|
|-2--------------2----(2)--------------|
|--------------------------------------|
|
|                      ~~~
| E   E     +E   E     Q    E      +E
|--------------------------------------|
|----14b17-(14)-12b14-12---12pb14r(12)-|
|--------------------------------------|
|--------------------------------------|
|--------------------------------------|
|--------------------------------------|


  Q.        E  +Q     Q       Q.           E +H
|-0---------0--(0)----0----|--0------------0-(0)-------|
|-0---------0--(0)----0----|--0------------0-(0)-------|
|-1---------1--(1)----1----|--1------------1-(1)-------|
|-2---------2--(2)----2----|--2------------2-(2)-------|
|-2---------2--(2)----2----|--2------------2-(2)-------|
|-0---------0--(0)----0----|--0------------0-(0)-------|
|
| E   Q  a  E   E  E  E  E    S  S E  S S  E  Q    Q
|----12--9s12--------------|---------------------------|
|-------------/14p12-14p12-|---------------------------|
|--------------------------|-12p11p9-11p9-----9--------|
|--------------------------|--------------11------11\--|
|--------------------------|---------------------------|
|--------------------------|---------------------------|


  Q.       E   +Q      Q
|-0--------0---(0)-----0-------|
|-0--------0---(0)-----0-------|
|-2--------2---(2)-----2-------|
|-2--------2---(2)-----2-------|
|-0--------0---(0)-----0-------|
|------------------------------|
|
| E  S S E S S  E  S S E S S
|------------------------------|
|------------------7p5h7-9p7h==|
|----6p4h6-9p6h=9--------------|
|------------------------------|
|------------------------------|
|------------------------------|

  Gtr I
  Q.          E    +Q       Q        E   E  E  E  +H
|-0-----------0----(0)------0--|-----0--------------------|
|-0-----------0----(0)------0--|-----------12-------------|
|-4-----------4----(4)------4--|--------13----------------|
|-4-----------4----(4)------4--|--------------13-(13)-----|
|-2-----------2----(2)------2--|--------------------------|
|------------------------------|--------------------------|
|
| Gtr II
| Q.          E    +Q       Q        Q.        E  +Q   Q
|-0-----------0----(0)------0--|-----0---------0--(0)--0--|
|-0-----------0----(0)------0--|-----0---------0--(0)--0--|
|-4-----------4----(4)------4--|-----4---------4--(4)--4--|
|-4-----------4----(4)------4--|-----2---------2--(2)--2--|
|-2-----------2----(2)------2--|-----4---------4--(4)--4--|
|------------------------------|--------------------------|
|
| Gtr III
|                                    ~~~~~~~~~~~~~~~~~~~~~~
| E   S S  E  S  S  Q    a  Q     a  W
|------------------------------|--------------------------|
|-9--12p9h12-14p12h14---14s16--|-14s17--------------------|
|------------------------------|--------------------------|
|------------------------------|--------------------------|
|------------------------------|--------------------------|
|------------------------------|--------------------------|


    E   E  E  E  +E  Q    E     W
|---0---------------------0-|---0-----|
|---------12--------------0-|---0-----|
|------13------------8----1-|---1-----|
|------------13-(13)-9----2-|---2-----|
|--------------------9----2-|---2-----|
|--------------------7----0-|---0-----|
|
|   Q.        E  +Q    Q        W
|---0---------2--(2)---0----|---0-----|
|---0---------4--(4)---0----|---0-----|
|---4---------4--(4)---1----|---1-----|
|---2---------4--(4)---2----|---2-----|
|---4---------2--(2)---2----|---2-----|
|----------------------0----|---0-----|
|
|~~~~~~~~~~~~~~~~~~~~
|  +H            +Q    E  E    +W
|---------------------------|---------|
|-(17)----------(17)-----17-|-(17)----|
|---------------------------|---------|
|---------------------------|---------|
|---------------------------|---------|
|---------------------------|---------|


                 Bridge
    W             Q.   E +H       Q.   E +H       Q.   E +H
|-^-2----------||-3----2-(2)----|-3----2-(2)----|-3----3-(3)----|
|-^-3----------||-3----3-(3)----|-3----3-(3)----|-3----3-(3)----|
|-^-2----------||-2----2-(2)----|-2----2-(2)----|-5----4-(4)----|
|-^-4----------||-0----0-(0)----|-0----0-(0)----|-5----5-(5)----|
|-^-2----------||---------------|---------------|-x----x-(x)----|
|--------------||---------------|---------------|-3----3-(3)----|
|
|   W             Q.   E +H       Q.   E +H       Q.   E +H
|-^-2----------||-3----2-(2)----|-3----2-(2)----|-3----3-(3)----|
|-^-3----------||-3----3-(3)----|-3----3-(3)----|-3----3-(3)----|
|-^-2----------||-2----2-(2)----|-2----2-(2)----|-5----4-(4)----|
|-^-4----------||-0----0-(0)----|-0----0-(0)----|-5----5-(5)----|
|-^-2----------||---------------|---------------|-x----x-(x)----|
|--------------||---------------|---------------|-3----3-(3)----|
|
|  +H.      Q     W               W               W
|--------------||---------------|---------------|---------------|
|-(17)---------||---------------|---------------|---------------|
|--------------||---------------|---------------|---------------|
|--------------||---------------|---------------|---------------|
|--------------||---------------|---------------|---------------|
|--------------||---------------|---------------|---------------|


  Gtrs I, II
  Q  E E +H       Q.   E +H       E E E E +H        Q.    E  +H
|----3-3-(3)----|-5----5-(5)----|-5---5-5-(5)----|--8-----8--(8)----|
|----3-3-(3)----|-5----5-(5)----|-5-5---5-(5)----|--8-----8--(8)----|
|-5----4-(4)----|-7----6-(6)----|-7-----6-(6)----|-10-----9--(9)----|
|-5----5-(5)----|-7----7-(7)----|-7-----7-(7)----|-10----10-(10)----|
|-5-------------|-x----x-(x)----|-7-----7-(7)----|--x-----x--(x)----|
|-3-------------|-5----5-(5)----|-5-----5-(5)----|--8-----8--(8)----|


   E E  E  E  +H        E  E  E  E  +H
|------10------------|-------10------------|
|----8-----8--(8)----|----10----10-(10)----|
|-10-------9--(9)----|-12-------11-(11)----|
|-10------10-(10)----|-12-------12-(12)----|
|--x-------x--(x)----|--x--------x--(x)----|
|--8-------8--(8)----|-10-------10-(10)----|


   E  E  E  E  +Q.   E   Q.   E +H
|-------10-------------|-3----3-(3)----|
|----10----10-(10)-----|-3----3-(3)----|
|-12-------11-(11)-----|-5----4-(4)----|
|-12-------12-(12)-----|-5----5-(5)----|
|-12-------12-(12)-----|-x----x-(x)----|
|-10-------10-(10)-----|-3----3-(3)----|


  Q.   E +H       Q.   E +H       Q.   E +H        E E  E  E  +H
|-3----3-(3)----|-5----5-(5)----|-5----5-(5)----|------10------------|
|-3----3-(3)----|-5----5-(5)----|-5----5-(5)----|----8-----8--(8)----|
|-5----4-(4)----|-7----6-(6)----|-7----6-(6)----|-10-------9--(9)----|
|-5----5-(5)----|-7----7-(7)----|-7----7-(7)----|-10------10-(10)----|
|-x----x-(x)----|-x----x-(x)----|-x----x-(x)----|--x-------x--(x)----|
|-3----3-(3)----|-5----5-(5)----|-5----5-(5)----|--8-------8--(8)----|


                        Interlude
  Gtr I
   E  E  E  E  +H         S  S S S S S  S S   S  S S S S S S S
|-------10------------||---------------------------------------|
|-----8-----8--(8)----||---------------------------------------|
|-10--------9--(9)----||---------------------------------------|
|-10-------10-(10)----||---------------------------------------|
|--x--------x--(x)----||---------------------------------------|
|--8--------8--(8)----||--1--1-1-1-1-1--1-1---1--1-1-1-1-1-1-1-|
|
| Gtr II
|  Q.       E  +H         Q.            E    +Q.           E
|--8--------8--(8)----||---------------------------------------|
|--8--------8--(8)----||--9------------10---(10)---------------|
|-10--------9--(9)----||-10------------10---(10)---------------|
|-10-------10-(10)----||-10------------10---(10)---------------|
|-10-------10-(10)----||--8-------------8----(8)---------------|
|--8--------8--(8)----||---------------------------------------|


   S  S S S S S  S S  +S  S S S S S S S    S  S S S S S  E  +S  S S S S S S S
|---------------------------------------|-----------------------------------|
|---------------------------------------|-----------------------------------|
|---------------------------------------|-----------------------------------|
|---------------------------------------|-----------------------------------|
|-------------------------3-3-3---------|-----------------------3-3-3-5p3---|
|-1--1-1-1-1-1--1s5--(5)-------5s3-1-1-|--1--1-1-1-1-1s=5--(5)-----------5-5|
|
|  Q.            E    +Q.           E      Q.            E  +Q.           E
|---------------------------------------|-----------------------------------|
|--9------------10---(10)---------------|--9------------10-(10)-------------|
|-10------------10---(10)---------------|-10------------10-(10)-------------|
|-10------------10---(10)---------------|-10------------10-(10)-------------|
|--8-------------8----(8)---------------|--8-------------8--(8)-------------|
|---------------------------------------|-----------------------------------|


   S  S S S S S a  S S   S  S S S S S S S
|-----------------------------------------|
|-----------------------------------------|
|-----------------------------------------|
|-----------------------------------------|
|--3--3-3-3-3-3-2s=3-3---3--3-3-3-3-3-3-3-|
|-----------------------------------------|
|
|  Q.              E    +H
|-----------------------------------------|
|-----------------------------------------|
|-10---------------9----(9)---------------|
|-10--------------10---(10)---------------|
|-10--------------10---(10)---------------|
|--8---------------8----(8)---------------|

   S  S S S    S S  S S   S  S S S S  S S S
|--------------------------------------------|
|--------------------------------------------|
|--------------------------------------------|
|--------------------------------------------|
|--3--3-5-5b6==5-5--5-5---5--5-5-5-5r-5-3-0--|
|--------------------------------------------|
|
|  Q.               E    +H
|--------------------------------------------|
|--------------------------------------------|
|-10----------------9----(9)-----------------|
|-10---------------10---(10)-----------------|
|-10---------------10---(10)-----------------|
|--8----------------8----(8)-----------------|


   S  S S S S S  S S   S  S S S S S S S
|---------------------------------------|
|---------------------------------------|
|---------------------------------------|
|---------------------------------------|
|---------------------------------------|
|--1--1-1-1-1-1--1-1---1--1-1-1-1-1-1-1-|
|
|  Q.            E    +Q.           E
|---------------------------------------|
|--9------------10---(10)---------------|
|-10------------10---(10)---------------|
|-10------------10---(10)---------------|
|--8-------------8----(8)---------------|
|---------------------------------------|


  a  E  S S S S a  S S   S  S S S S S E
|---------------------------------------|
|---------------------------------------|
|---------------------------------------|
|---------------------------------------|
|-------3-3-3-3-----------------------3-|
|-3s=5----------5s=3-1---1--1-1-1-3s5---|
|
|    Q.            E    +H
|---------------------------------------|
|---12------------11---(11)-------------|
|---11------------11---(11)-------------|
|---11------------11---(11)-------------|
|----9-------------9----(9)-------------|
|---------------------------------------|


   Q.    S S   S  S S S S S S S    S  S S S S S  S S   Q    Q
|-------------------------------|------------------------------|
|-------------------------------|------------------------------|
|-------------------------------|------------------------------|
|-------------------------------|------------------------------|
|-------------------------------|------------------------------|
|--2-----3-3---3--3-3-3-4-4-4-4-|--4--4-5-5-5-5--5-5---6S===2--|
|
|  Q.    E    +H                   Q.            E    +Q    Q
|-------------------------------|------------------------------|
|-12----11---(11)---------------|-12------------11---(11)--11--|
|-11----11---(11)---------------|-11------------11---(11)--11--|
|-11----11---(11)---------------|-11------------11---(11)--11--|
|--9-----9----(9)---------------|--9-------------9----(9)---9--|
|-------------------------------|------------------------------|


  Q.   E +Q   Q    +E  E +Q   Q  Q    E E +E  E +E  E +E  E
|----------------|------------------|-----------------------|
|----------------|------------------|-----------------------|
|----------------|------------------|-----------------------|
|----------------|------------------|-----------------------|
|-2----1-(1)--0--|-(0)--------------|---------6-(6)-5-(5)-4-|
|----------------|-----4-(4)--3--2--|-1-0-(0)---------------|
|
| Q.   E +Q   Q    +E  E +Q   Q  Q    E E +E  E +E  E +E  E
|----------------|------------------|-----------------------|
|----------------|------------------|-----------------------|
|----------------|------------------|-----------------------|
|----------------|------------------|-----------------------|
|----------------|------------------|---------6-(6)-5-(5)-4-|
|-7----6-(6)--5--|-(5)-4-(4)--3--2--|-1-0-(0)---------------|


  Gtrs I, II
  +E  Q  E +E  Q  E   W          +W           +W
|-------------------|----------|------------|--------|
|-------------------|----------|------------|--------|
|-------------------|----------|------------|--------|
|-------------------|----------|------------|--------|
|-(4)-3--3-(3)-3--3-|-2--------|-(2)--------|-(2)----|
|-------------------|----------|------------|--------|


               3rd Verse
  Gtr I
  +W            W          +Q   E  E  +Q   Q     W
|------------||----------|--------------------|-------|
|------------||-9--------|-(9)----10-(10)--9--|-------|
|------------||-9--------|-(9)----------------|-------|
|------------||-9--------|-(9)--9-------------|-11----|
|-(2)--------||-7--------|-(7)----------------|-------|
|------------||----------|--------------------|-------|
|
| Gtr II
| +W            W          +Q   E  E  +Q   Q     W
|------------||----------|--------------------|-------|
|------------||-9--------|-(9)----10-(10)--9--|-------|
|------------||-9--------|-(9)----------------|-------|
|------------||-9--------|-(9)--9-------------|-11----|
|-(2)--------||-7--------|-(7)----------------|-------|
|------------||----------|--------------------|-------|


  H     H      W          +Q   E  E  +Q   Q     W
|------------|----------|--------------------|-------|
|------------|-9--------|-(9)----10-(10)--9--|-------|
|-9----11----|-9--------|-(9)----------------|-------|
|------------|-9--------|-(9)--9-------------|-11----|
|------------|-7--------|-(7)----------------|-------|
|------------|----------|--------------------|-------|
|
| H     H      W          +Q   E  E  +Q   Q     W
|------------|----------|--------------------|-------|
|------------|-9--------|-(9)----10-(10)--9--|-------|
|-9----11----|-9--------|-(9)----------------|-------|
|------------|-9--------|-(9)--9-------------|-11----|
|------------|-7--------|-(7)----------------|-------|
|------------|----------|--------------------|-------|


D.S. al Coda &
  H     H        Q.    E  +H       Q  E  E  +H
|------------||-12---------------|-----------------|
|------------||--9----12-(12)----|-9----12-(12)----|
|-9----11----||--------9--(9)----|-x-----9--(9)----|
|------------||------------------|-9---------------|
|------------||------------------|-----------------|
|------------||------------------|-----------------|
|
| H     H        W                 W
|------------||--0---------------|-0---------------|
|------------||--0---------------|-0---------------|
|-9----11----||--1---------------|-4---------------|
|------------||--2---------------|-2---------------|
|------------||--2---------------|-4---------------|
|------------||--0---------------|-----------------|


  Q  E  E  +H        Q.    E  +H        Q.    E  +H
|-----------------|-12---------------|-12---------------|
|-9----12-(12)----|--9----12-(12)----|--9----12-(12)----|
|-x-----9--(9)----|--------9--(9)----|--------9--(9)----|
|-9---------------|------------------|------------------|
|-----------------|------------------|------------------|
|-----------------|------------------|------------------|
|
| W                  W                  W
|-0---------------|--0---------------|--0---------------|
|-0---------------|--0---------------|--0---------------|
|-1---------------|--4---------------|--1---------------|
|-2---------------|--4---------------|--2---------------|
|-0---------------|--2---------------|--2---------------|
|-----------------|------------------|--0---------------|


                                                          Outro
  Q.    E  +H       Q.    E  +H        Q.    E  +H         W
|-----------------|-----------------|-12---------------||--0-------------|
|-9----12-(12)----|-9----12-(12)----|--9----12-(12)----||o-0-------------|
|-9-----9--(9)----|-9-----9--(9)----|--------9--(9)----||--1-------------|
|-----------------|-----------------|------------------||--2-------------|
|-----------------|-----------------|------------------||o-2-------------|
|-----------------|-----------------|------------------||--0-------------|
|
| W                 W                  W                   Q.   E +H
|-0---------------|-0---------------|--0---------------||--0----0-(0)----|
|-0---------------|-0---------------|--0---------------||o-0----0-(0)----|
|-4---------------|-1---------------|--4---------------||--1----1-(1)----|
|-2---------------|-2---------------|--4---------------||--2----2-(2)----|
|-4---------------|-0---------------|--2---------------||o-2----2-(2)----|
|-----------------|-----------------|------------------||--0----0-(0)----|


   Q   E E +Q   Q    W               H    H     3x W
|--0---------------|---------------|------------||-0-------------|
|--0---------------|---------------|-----------o||-0-------------|
|--1-----2-(2)--1--|---------------|------------||-1-------------|
|--2---------------|---------------|-2----4-----||-2-------------|
|--2---2-----------|-4-------------|-----------o||-2-------------|
|--0---------------|---------------|------------||-0-------------|
|
| +W                 Q.   E +H       H    H     3x Q.   E +H
|-(0)--------------|-0----0-(0)----|-0----0-----||-0----0-(0)----|
|-(0)--------------|-0----0-(0)----|-0----0----o||-0----0-(0)----|
|-(1)--------------|-2----2-(2)----|-4----4-----||-1----1-(1)----|
|-(2)--------------|-2----2-(2)----|-4----4-----||-2----2-(2)----|
|-(2)--------------|-0----0-(0)----|-----------o||-2----2-(2)----|
|-(0)--------------|---------------|------------||-0----0-(0)----|


                                     H.=H
   Q   E E +Q   Q    W               H      H        W
|--0---------------|---------------|---------------|-0----*|
|--0---------------|---------------|---------------|-0----*|
|--1-----2-(2)--1--|---------------|---------------|-1----*|
|--2---------------|---------------|-2------4------|-2----*|
|--2---2-----------|-4-------------|---------------|-2----*|
|--0---------------|---------------|---------------|-0----*|
|
| +W                 Q.   E +H       Q.   E Q.   E   W
|-(0)--------------|-0----0-(0)----|-0------2------|-0----*|
|-(0)--------------|-0----0-(0)----|-0------4------|-0----*|
|-(1)--------------|-2----2-(2)----|-2------4------|-1----*|
|-(2)--------------|-2----2-(2)----|-2------4------|-2----*|
|-(2)--------------|-0----0-(0)----|-0------2------|-2----*|
|-(0)--------------|---------------|---------------|-0----*|


Duration Legend
---------------
W - whole; H - half; Q - quarter; E - 8th; S - 16th; T - 32nd; X - 64th; a - acciaccatura
+ - note tied to previous; . - note dotted; .. - note double dotted
Uncapitalized letters represent notes that are staccato (1/2 duration)
Irregular groupings are notated above the duration line
Duration letters will always appear directly above the note/fret number it represents the
duration for.  Duration letters with no fret number below them represent rests.  Multi-
bar rests are notated in the form Wxn, where n is the number of bars to rest for.  Low
melody durations appear below the staff

Tablature Legend
----------------
 h   - hammer-on
 p   - pull-off
 b   - bend
 pb  - pre-bend
 r   - bend release (if no number after the r, then release immediately)
 /\  - slide into or out of (from/to "nowhere")
 s   - legato slide
 S   - shift slide
  - natural harmonic
[n]  - artificial harmonic
n(n) - tapped harmonic
 ~   - vibrato
 tr  - trill
 T   - tap
 TP  - trem. picking
 PM  - palm muting
\n/  - tremolo bar dip; n = amount to dip
 \n  - tremolo bar down
 n/  - tremolo bar up
/n\  - tremolo bar inverted dip
 =   - hold bend; also acts as connecting device for hammers/pulls
 <>  - volume swell (louder/softer)
 x   - on rhythm slash represents muted slash
 o   - on rhythm slash represents single note slash

Misc Legend
-----------
 |  - bar
||  - double bar
||o - repeat start
o|| - repeat end
*|  - double bar (ending)
 :  - bar (freetime)
 $  - Segno
 &  - Coda
Tempo markers -  = BPM(8/16=s8/s16), where s8 = swing 8ths, s16 = swing 16ths



            
            
Suggest correction
Creating personal tab
Creating personal tab
You can edit any tab online and save it as your Personal.

You can edit, replace or remove any tab part or add personal notes – all changes will be seen only by you.

Personal tabs can be accessed anytime from any device, even offline.
Learn more »
comments
print report bad tab
2 comments total.
0 reply
mikasaurus 10 Jan 13, 2007 05:03 PM

awesome. chord names might help but it's perfect

+1 reply
stryder1017 1,977 Sep 27, 2008 08:54 AM

I wouldn't say this is advanced maybe intermediate, but awesome tab

guest
Wanna post a correction for this tab? Suggest correction