Oops, an error
Loading. Please wait.

Glory Days Bass

version 1
version 1

Whole song

Interactive

16,102 views 36 this week
1 commentread comment
1 2 3 4 5
x 5
add to favorites
launch autoscroll
font size
0
reset
guitar tuner
backing track
0:00
0:00
×
Best way to learn
"Glory Days"
Autoscroll
slow
fast
+/-
esc
set tempo
stop
Song: GLORY DAYS
Artist: BRUCE SPRINGSTEEN
Album: GREATEST HITS
--------------------
                                                                                    
Transcribed by Emil Ortenmark, kfemil@telia.com

Standard tuning

Comments: This is a full tab. There are a mountain of little
variations on the main riff and it´s slightly easier this way.
I´ve put part of the lyric in here and there to show where in
the song you are. Be sure to watch the repetitions.

Key:
/    = slide up
\    = slide down
b    = bend (whole step)
b^   = bend (1/2 step)
b^^  = bend (1 1/2 steps)
pb   = pre-bend
r    = release-bend
t    = tap with righthand finger
h    = hammer-on
p    = pull-off
~    = Vibrato
*    = Natural Harmonic
#(#) = Trill
x    = Dead notes (no pitch)
P.M. = Palm mute (- -> underneath indicates which notes)
Tp   = Tap w\plectrum




Guitar intro 
                                          
G|----------------------------------------------------|
D|----------------------------------------------------|
A|----------------------------------------------------|
E|-----------------------------------------------12\--|


                                                  
G|----------------------------7-----------------------|
D|-----7------------------------------7/9---7---------|
A|-------------7/9---7-----5-------5------------------|
E|--5-------5-----------------------------------------|
  < - - - - - - - - - - - 2x - - - - - - - - - - >



"I had a friend who was a great..."

G|----------------------------7-----------------------|
D|-----7------------------------------7/9---7---------|
A|-------------7/9---7-----5-------5------------------|
E|--5-------5-----------------------------------------|
  < - - - - - - - - - - 3x - - - - - - - - - - >

                                                    
G|----------------------------7-----------------------|
D|-----7------------------------------7/9-7-----------|
A|-------------7/9---7-----5-------5---------9--5-----|
E|--5-------5-----------------------------------------|



"Saw him the other night at this..."
                                                  
G|----------------------------------------------------|
D|----------------------------------------------------|
A|--7--7----7--------7\-------7-------------7\--------|
E|-------------7--9--------0-------0--7--9------------|


                                                   
G|----------------------------------------------------|
D|----------------------------------------------------|
A|--5--5----5--------5-----5--5----5--------5---------|
E|-------------5--7-------------------5--7-----7------|


                                                   
G|----------------------------------------------------|
D|----------------------------------------------------|
A|--7--7----7--------7\-------7----7--------7---------|
E|-------------7--9--------0----------7--9-----9------|


                                                      
G|----------------------------------------------------|
D|----------------------------------------------------|
A|--5--5--4---------4--5---5h7-7--5h7-7--5h7-7--7\----|
E|-------------7--------------------------------------|



"Glory days..."
                                                  
G|----------------------------7-----------------------|
D|-----7------------------------------7/9---7---------|
A|-------------7/9---7-----5-------5------------------|
E|--5-------5-----------------------------------------|
  < - - - - - - - - - - 2x - - - - - - - - - >

                                                     
G|----------------------------------------------------|
D|-----7----------------------------------------------|
A|-------------7/9-7---------7--7----x----------------|
E|--5-------5---------7--9--------------0--0--2--4----|


                                                  
G|----------------------------7-----------------------|
D|-----7------------------------------7/9---7---------|
A|-------------7/9---7-----5-------5------------------|
E|--5-------5-----------------------------------------|




"There's this girl that lives..."

G|----------------------------7-----------------------|
D|-----7------------------------------7/9---7---------|
A|-------------7/9---7-----5-------5------------------|
E|--5-------5-----------------------------------------|
   < - - - - - - - - - 3x - - - - - - - - - - >

                                                                                                      
G|----------------------------7-----------7-----------|
D|-----7------------------------------7/9----9--------|
A|-------------7/9---7-----5-------5------------------|
E|--5-------5-----------------------------------7-----|



"Her husband Bobby..."
                                                  
G|----------------------------------------------------|
D|----------------------------------------------------|
A|--7--7----7--------7\-------7-------------7\--------|
E|-------------7--9--------0-------0--7--9------------|


                                                   
G|----------------------------------------------------|
D|----------------------------------------------------|
A|--5--5----5--------5-----5--5----------5------------|
E|-------------5--7----------------5--7-----7--5------|


                                                   
G|----------------------------------------------------|
D|----------------------------------------------------|
A|--7--7----7--------7---------7-------------7\-------|
E|-------------7--9-----9---0-------0--7--9-----------|


                                                     
G|----------------------------------------------------|
D|---------------------------------------------9\-----|
A|--5--5--4--4-------4--5---5/7-7--7--7--7--7---------|
E|--------------7-------------------------------------|



"Glory days..."
                                                  
G|----------------------------7-----------------------|
D|-----7------------------------------7/9---7---------|
A|-------------7/9---7-----5-------5------------------|
E|--5-------5-----------------------------------------|
 

                                                    
G|----------------------------7-----------7-----------|
D|-----7------------------------------7/9----9--7-----|
A|-------------7/9---7-----5-------5------------------|
E|--5-------5-----------------------------------------|


                                                     
G|----------------------------------------------------|
D|-----7-----------7----------------------------------|
A|-------------7/9----9------7--7----7--7-------------|
E|--5-------5------------7-----------------9--7--0----|


                                                    
G|----------------------------7-----------------------|
D|-----7----------------------------------7-----------|
A|-------------7/9---7-----5-------5--7/9----9--5-----|
E|--5-------5-----------------------------------------|


                                                       
G|-----9----------------9------9------------9---------|
D|-------------9/11--------------------9/11----11-----|
A|--7-------7---------------7-------7--------------7--|
E|----------------------------------------------------|


                                                  
G|----------------------------------------------------|
D|----------------------------------------------------|
A|--5--5----------------5---7--7--7-------------------|
E|--------7----5--5--7---------------------12\--------|



"Think I'm going down to the..."
                                       
G|----------------------------------------------------|
D|----------------------------------------------------|
A|----------------------------------------------------|
E|--5-------------------------------------------------|



"Well the time slips away..."
                                                          
G|----------------------------------------------------|
D|----------------------------------------------------|
A|-6/7-7--7--7--6/7-7--7--7--6/7-7--7--7--6/7-7--7--7-|
E|----------------------------------------------------|


                                                         
G|----------------------------------------------------|
D|----------------------------------------------------|
A|-4/5-5--5--5--4/5-5--5--5--7--7--7--7--7--7--7--12\-|
E|----------------------------------------------------|


"Glory days..."
                                                  
G|----------------------------7-----------------------|
D|-----7------------------------------7/9---7---------|
A|-------------7/9---7-----5-------5------------------|
E|--5-------5-----------------------------------------|
   < - - - - - - - - - 2x - - - - - - - - - - >

                                                    
G|----------------------------------------------------|
D|-----7----------------------------------------------|
A|-------------7/9---7---------7----------7-----------|
E|--5-------5-----------7---0-------7--9-----9--0-----|


                                                  
G|----------------------------7-----------------------|
D|-----7------------------------------7/9---7---------|
A|-------------7/9---7-----5-------5------------------|
E|--5-------5-----------------------------------------|
   < - - - - - - - - - 2x - - - - - - - - - - >

                                                     
G|----------------------------------------------------|
D|-----7----------------------------------------------|
A|-------------7/9-7------------7----------7----------|
E|--5-------5---------9--7---0-------7--9-----9--0----|


                                                  
G|----------------------------7-----------------------|
D|-----7------------------------------7/9---7---------|
A|-------------7/9---7-----5-------5------------------|
E|--5-------5-----------------------------------------|


                                                    
G|----------------------------7-----------7-----------|
D|-----7------------------------------7/9----9--7-----|
A|-------------7/9---7-----5-------5------------------|
E|--5-------5-----------------------------------------|


                                                     
G|-----------------------------------------7----------|
D|-----7----------------------------7--7/9----9--7----|
A|-------------7/9---7------5--5----------------------|
E|--5-------5-----------5-----------------------------|


                                                     
G|----------------------------------------------------|
D|-----7----------------------------------------------|
A|-------------7/9---7------5--5----------------------|
E|--5-------5-----------5---------2--2--3--3--4--0----|


                                                     
G|-----------------------------7----------------------|
D|-----7-------------------------------7/9-7----------|
A|-------------7/9---7------5-------5---------9-------|
E|--5-------5-----------5------------------------0----|


                                                     
G|----------------------------------------------------|
D|-----7-----------------------------------------7----|
A|-------------7/9---7------5--5--------5----7/9------|
E|--5-------5-----------5---------7--5----------------|


                                                   
G|----------------------------------------------------|
D|-------------------7--------------------------------|
A|----------7--7/9---------5--5--5--5-----------------|
E|--5--5---------------------------------2--3--4------|


                                                         
G|----------------------------------------------------|
D|----------------------------------------------------|
A|----------------------------4/5-5--5--5--5----------|
E|--4/5-5--5--5--5--5--5--5-------------------2--3--4-|
   < - - - - - - repeat and fade - - - - - - - - - - >
Suggest correction
comments
print report bad tab
1 comment total.
0 reply
lowestfrequency 156 May 01, 2009 11:13 AM

This is a great tab: easy to follow, all of the parts are there, and even the few bits that aren't right are melodically solid.

Five stars, yo!

guest
You may want to rate the tab now too:
select rating
Wanna post a correction for this tab? Suggest correction