Oops, an error
Loading. Please wait.

High Hopes tab

578 views 6 this week
1 commentread comment
1 2 3 4 5
2 more votes to show rating
add to favorites
×
Save as Personal and add changes to this tab that will be seen only by you. Learn more ›
×
You can save this tab as Personal to edit and correct it or add notes. All changes will be seen only by you. Learn more »
launch autoscroll
font size
0
reset
how to read this tab
guitar tuner
edit
Autoscroll
slow
fast
+/-
esc
set tempo
stop
Author
Difficulty
High Hopes
from High Hopes, 2014. Written by Bruce Springsteen; transcribed by burnmik.

Am      X02210
G5(9)   3X0233
C       X32010
E       022100
 
Intro
Am   

Verse 
Am
Monday morning runs to Sunday night, screaming slow me down before the new year dies
Won't take much to kill a lovin' smile, and every mother with a baby cryin in her arms sings
G5(9)                             
Give me help, give me strength
Am
Give a soul a night of fearless sleep
G5(9)
Give me love, give me peace
C                                    E
Don't you know these days you pay for everything

Chorus
              Am / Main Riff
Got high hopes, got high hopes

Got high hopes, got high hopes

(Main Riff)
e|----------------------|----------------------|----------------------|----------------|
B|----------------------|----------------------|----------------------|----------------|
G|----------------------|----------------------|----------------------|----------------|
D|----------------------|----------------------|----------------------|----------------|
A|----3---5---3---5--3--|-6/5-----3--5h/7------|----3---5---3---5--3--|--6/5---3-------|
E|-5--------------------|----------------------|-5--------------------|------------5---|

Am
Comin' from the city, comin' from the wild,I see a breathless army breakin' like a cloud
They're gonna smother love, they're gonna shoot your hopes, 
Before the meek inherit, they'll learn to hate themselves
G5(9)                            
Give me help, give me strength
Am                                     
Give a soul a night of fearless sleep
G5(9)
Give me love, give me peace
          C                          E
Don't you know these days you pay for everything

          Am (w/main riff)
Got high hopes, got high hopes
Got high hopes, got high hopes
Got high hopes, got high hopes
Got high hopes, got high hopes

G5(9)                            
Give me help, give me strength
Am                                     
Give a soul a night of fearless sleep
G5(9)
Give me love, give me peace
          C                          E
Don't you know these days you pay for everything

Chorus

Solo - Am

Am 
So tell me someone, now, what's the price, I wanna buy some time and maybe live my life
I wanna have a wife I wanna have some kids, I want to look in their eyes and know they stand a chance
G5(9)                             
Give me help, give me strength
Am                                    
Give a soul a night of fearless sleep
G5(9)          
Give me love, give me peace
          C                           E
Don't you know these days you pay for everything

Chorus

(repeat chorus to fade out)

            
            
Suggest correction
Creating personal tab
Creating personal tab
You can edit any tab online and save it as your Personal.

You can edit, replace or remove any tab part or add personal notes – all changes will be seen only by you.

Personal tabs can be accessed anytime from any device, even offline.
Learn more »
Give kudos to tab author, rate the tab!
1 2 3 4 5
comments
print report bad tab
1 comment total.
0 reply
blindterry333 3,159 Jan 01, 2016 06:23 PM

Thanks for the taking the time to get it posted...but that "Main Riff" needs changed, severely.

E ---------------|-------------------|------------------|
B ---------------------5---------------|----------------|
G -7-5-7--7-7-5--7-7-5---------|--------------|---------|
D ---------------|-------------------|------------------|
A ---------------|-------------------|------------------|
E ---------------|-------------------|------------------|

E ---------------|-------------------|------------------|
B --------------5--|------------------------------------|
G -7-5-7--7-7-5---7--5-------|------------------|-------|
D ---------------|-----7--------------|-----------------|
A ---------------|-------------------|------------------|
E ---------------|-------------------|------------------|

Or you can do it on the first and third frets which works better with the chords.

guest
You may want to rate the tab now too:
select rating
Wanna post a correction for this tab? Suggest correction