Oops, an error
Loading. Please wait.

Human Touch bass

version 1
version 1

Whole song

Interactive

634 views 6 this week
no commentswrite comment
1 2 3 4 5
2 more votes to show rating
add to favorites
×
Save as Personal and add changes to this tab that will be seen only by you. Learn more ›
×
You can save this tab as Personal to edit and correct it or add notes. All changes will be seen only by you. Learn more »
launch autoscroll
font size
0
reset
guitar tuner
backing track
0:00
0:00
edit
Autoscroll
slow
fast
+/-
esc
set tempo
stop
Author
Difficulty
Human Touch
Bruce Springsteen
Greatest Hits

Standard Tuning

Verse 1
G|-----------------|-----------------|-----------------|-----------------|
D|-----------------|-----------------|-----------------|-----------------|
A|-----------------|-------3---3---3-|-----------------|-------3---3---3-|x2
E|-3-----3-3-------|-1---------------|-3-----3-3-------|-1---------------|

G|-----------------|-----------------|-----------------|-----------------|
D|-----------------|-----------------|-----------------|-----------------|
A|-----------------|-------3---3---3-|-----------------|---3-------------|
E|-3-----3-3-------|-1---------------|-1-----1-1-------|-1-------3-------|

Verse 2
G|-----------------|-----------------|-----------------|-----------------|
D|-----------------|-----------------|-----------------|-----------------|
A|-----------------|-------3---3---3-|-----------------|-------3---3---3-|
E|-3-----3-3-------|-1---------------|-3-----3-3-------|-1---------------|

G|-----------------|-----------------|-----------------|-----------------|
D|-----------------|-----------------|-----------------|-----------------|
A|-----------------|-------3---3---3-|-----------------|---3-------------|
E|-3-----3-3-------|-1---------------|-1-----1-1-------|-1-------3-------|

Pre-Chorus
G|-----------------|-----------------|-----------------|-----------------|
D|-----------------|-----------------|-----------------|-----------------|
A|-----------------|-3-----3---3---3-|-----------------|-3-----3---3p0---|
E|-1-----1-1-----1-|-----------------|-1-----1-1-------|---------------3-|

G|-----------------|-----------------|-----------------|-----------------|
D|-----------------|-----------------|-----------------|-----------------|
A|-----------------|-3-----3---3---3-|-----------------|---3-------------|
E|-1-----1-1-------|-----------------|-1-----1-1-------|-1-----3-------3-|

G|-----------------|-----------------|
D|-----------------|-----------------|
A|-----------------|---3-------------|
E|-1-----1-1-------|-1-----3---------|

Interlude
G|-----------------|-----------------|-----------------|-----------------|
D|-----------------|-------------0-2-|-----------------|-----------------|
A|-----------------|-------3---3-----|-------2-3-2-0---|-------3---3---3-|
E|-3-----3-3-----3-|-1---------------|-3-------------3-|-1---------------|

Verse 3
G|-----------------|-----------------|-----------------|-----------------|
D|-----------------|-----------------|-----------------|-----------------|
A|-----------------|-------3---3---3-|-----------------|-------3---3---3-|
E|-3-----3-3-------|-1---------------|-3-----3-3-------|-1---------------|

G|-----------------|-----------------|-----------------|-----------------|
D|-----------------|-----------------|-----------------|-----------------|
A|-----------------|-------3---3---3-|-----------------|-----------------|
E|-3-----3-3-------|-1---------------|-1-----1-1-------|-1/(8)-\\3-------|

Pre-Chorus
G|-----------------|-----------------|-----------------|-----------------|
D|-----------------|-----------------|-----------------|-----------------|
A|-----------------|-3-----3---3---3-|-----------------|-3-----3---3p0---|
E|-1-----1-1-----1-|-----------------|-1-----1-1-----1-|---------------3-|

G|-----------------|-----------------|-----------------|-----------------|
D|-----------------|-----------------|-----------------|-----------------|
A|-----------------|-3-----3---3---3-|-----------------|---3-------------|
E|-1-----1-1-----1-|-----------------|-1-----1-1-------|-1-----3-------3-|

G|-----------------|-----------------|
D|-----------------|-----------------|
A|-----------------|---3-------------|
E|-1-----1-1-------|-1-----3---------|

Chorus
G|-----------------|-----------------|-----------------|-----------------|
D|-----------------|-------------0-2-|-----------------|-------------0-2-|
A|-----------------|-------3---3-----|-------2-3-2-0---|-------3---3-----|
E|-3-----3-3-------|-1---------------|-3-------------3-|-1---------------|

G|-----------------|-----------------|-----------------|-----------------|
D|-----------------|-------------0-2-|-----------------|-------------0-2-|
A|-----------------|-------3---3-----|-------2-3-2-0---|-------3---3-----|
E|-3-----3-3-----3-|-1---------------|-3-------------3-|-1---------------|

G|-----------------|-----------------|-----------------|-----------------|
D|-----------------|-----------------|-----------------|-------------0-2-|
A|-------2-3-2-0---|-------3---3---3-|-------2-3-2-0---|-------3---3-----|
E|-3-------------3-|-1---------------|-3-------------3-|-1---------------|

Bridge
G|-----------------|-----------------|-----------------|-----------------|
D|-----------------|-----------------|-----------------|-----------------|
A|-0---0-0---0-0-0-|-------3---3---3-|---------------3-|-5-----5---5-----|
E|-----------------|-1---------------|-3-----3-3-3-----|-------------2-3-|

G|-----------------|-----------------|-----------------|-----------------|
D|-----------------|-----------------|-----------------|-----------------|
A|-0---0-0---0-0-0-|-------3---3---3-|-----------------|-----------------|
E|-----------------|-1---------------|-3-----3-3-3---0-|-1-----1-1-----1/|

G|-----------------|-----------------|
D|-----------------|-----------------|
A|-----------------|-----------------|
E|-5---5-5---5-5-5-|-5-5-5-5-5-5-5-5\|

Guitar Solo
G|-----------------|-----------------|-----------------|-----------------|
D|-----------------|-----------------|-----------------|---------0-------|
A|-----------------|-3-----3-3-3-0---|-----------------|-3-----3---3-0---|
E|-1-----1-1-----1-|---------------3-|-1-----1-1-----1-|---------------3-|

G|-----------------|-----------------|-----------------|-----------------|
D|-----------------|-----------------|-----------------|-----------------|
A|-----------------|-3-----3-3-3-0---|-----------------|-3-3-3-3-3-------|
E|-1-----1-1-----1-|---------------3-|-1-----1-1-1---1-|-----------------|

Interlude
G|-----------------|-----------------|-----------------|-----------------|
D|-----------------|-------------0-2-|-----------------|-------------0-2-|
A|-----------------|-------3---3-----|-------2-3-2-0---|-------3---3-----|
E|-3-----3-3-------|-1---------------|-3-------------3-|-1---------------|

G|-----------------|-----------------|-----------------|-----------------|
D|-----------------|-----------------|-----------------|-------------0-2-|
A|-------2-3-2-0---|-------3---3---3-|-------2-3-2-0---|-------3---3-----|
E|-3-------------3-|-1---------------|-3-------------3-|-1---------------|

Verse 4
G|-----------------|-----------------|-----------------|-----------------|
D|-----------------|-----------------|-----------------|-----------------|
A|-----------------|-------3---3---3-|-----------------|-------3---3---3-|
E|-3-----3-3-------|-1---------------|-3-----3-3-------|-1---------------|

G|-----------------|-----------------|-----------------|-----------------|
D|-----------------|-----------------|-----------------|-----------------|
A|-----------------|-------3---3---3-|-----------------|---3-------------|
E|-3-----3-3-------|-1---------------|-1-----1-1-------|-1-----3---3-3-3-|

Pre Chorus
G|-----------------|-----------------|-----------------|-----------------|
D|-----------------|-----------------|-----------------|-----------------|
A|-----------------|-3-----3---3p0---|-----------------|-3-----3---3---3-|
E|-1-----1-1-----1-|---------------3-|-1-----1-1-----1-|-----------------|

G|-----------------|-----------------|-----------------|-----------------|
D|-----------------|-----------------|-----------------|-----------------|
A|-----------------|-3-----3---3p0---|-----------------|---3-------------|
E|-1-----1-1-----1-|---------------3-|-1-----1-1-------|-1-----3---------|

G|-----------------|-----------------|-----------------|-----------------|
D|-----------------|-----------------|-----------------|-----------------|
A|-----------------|-3-----3---3p0---|-----------------|-3-----3---3---3-|
E|-1-----1-1-----1-|---------------3-|-1-----1-1-----1-|-----------------|

G|-----------------|-----------------|-----------------|-----------------|
D|-----------------|-----------------|-----------------|-----------------|
A|-----------------|-3-----3---3p0---|-----------------|---3-------------|
E|-1-----1-1-----1-|---------------3-|-1-----1-1-------|-1-----3-------3-|

G|-----------------|-----------------|-----------------|-----------------|
D|-----------------|-----------------|-----------------|-----------------|
A|-----------------|---3-------------|-----------------|---3-------------|
E|-1-----1-1-------|-1-----3---3---3-|-1-----1-1-------|-1-----3-------3-|

G|-----------------|-----------------|-----------------|-----------------|
D|-----------------|-----------------|-----------------|-----------------|
A|-----------------|---3-------------|-----------------|---3-------------|x2
E|-1-----1-1-------|-1-----3-------3-|-1-----1-1-------|-1-----3-------3-|

G|-----------------|-----------------|
D|-----------------|-----------------|
A|-----------------|---3-------------| then rest 4 bars
E|-1-----1-1-------|-1-----3---------|

Final Chorus
G|-----------------|-----------------|-----------------|-----------------|
D|-----------------|-------------0-2-|-----------------|-------------0-2-|
A|-----------------|-------3---3-----|-------2-3-2-0---|-------3---3-----|
E|-3-----3-3-------|-1---------------|-3-------------3-|-1---------------|

G|-----------------|-----------------|-----------------|-----------------|
D|-----------------|-------------0-2-|-----------------|-------------0-2-|
A|-------2-3-2-0---|-------3---3-----|-------2-3-2-0---|-------3---3-----|
E|-3-------------3-|-1---------------|-3-------------3-|-1---------------|

G|-----------------|-----------------|-----------------|-----------------|
D|-----------------|-------------0-2-|-----------------|-------------0-2-|
A|-------2-3-2-0---|-------3---3-----|-------2-3-2-0---|-------3---3-----|
E|-3-------------3-|-1---------------|-3-------------3-|-1---------------|

G|-----------------|-----------------|-----------------|-----------------|
D|-----------------|-------------0-2-|-----------------|-------------0-2-|
A|-------2-3-2-0---|-------3---3-----|-------2-3-2-0---|-------3---3-----|
E|-3-------------3-|-1---------------|-3-------------3-|-1---------------|
  fade out - - - - - - - - - - - - - - - - - - - - - - - - - - - - - - - >

This is completely transcribed by ear. Please rate and have fun playing!
Suggest correction
Creating personal tab
Creating personal tab
You can edit any tab online and save it as your Personal.

You can edit, replace or remove any tab part or add personal notes – all changes will be seen only by you.

Personal tabs can be accessed anytime from any device, even offline.
Learn more »
Give kudos to tab author, rate the tab!
1 2 3 4 5
comments
print report bad tab
guest
You may want to rate the tab now too:
select rating
Wanna post a correction for this tab? Suggest correction