Oops, an error
Loading. Please wait.

Just Like Fire Would Chords

11,411 views 27 this week
3 commentsread comments
1 2 3 4 5
x 13
add to favorites
launch autoscroll
font size
0
reset
transpose
0
reset
display chords
guitar tuner
Autoscroll
slow
fast
+/-
esc
set tempo
stop
Help us to improve Ultimate-Guitar.com Take our survey!
×
JUST LIKE FIRE WOULD
BRUCE SPRINGSTEEN
HIGH  HOPES
Tabbed By Kyle K

-TABBED THIS OUT BY EAR SO IT MAY NOT BE 100% RIGHT
-UPDATE I ADDED SOME GUITAR PART INCLUDING THE MAIN RIFF YOU HEAR THROUGH THE SONG

C  G  F   C  G  F    C  G   F    C  G  F

  C  G  F               C  G  F 
E-----------------------------------------------------|
B-----------------------------------------------------|
G------0----------------------0-----------------------|
D---------4-2-0-0--2-2-----------4-2-0-----0----------|
A---------------------------------------2-----2-0-----|
E--3---------------------3----------------------------|

   C  G  F               C  G  F 
E-----------------------------------------------------|
B-----------------------------------------------------|
G------0----------------------0-----------------------|
D---------4-2-0-0--2-2-----------4-2-0-----0----------|
A---------------------------------------2-----2-0-----|
E--3---------------------3----------------------------|

C   G          F
One night in a motel room
C    G         F
Eyes cast like steel
C       G                  F
I drank the wine that they left on my table
C          G               F
I knew the morning was too far
C G         F
I smoked my last cigarette
C         G  F
Stay only to defy
C             G            F
The night was dark and the land is cold
C            G            F         
I was frozen right to the bone

F         G    C
Just like fire would, I burn
F         G    C     C
Just like fire would
F         G    C
Just like fire would, I burned up

C            G          F
Five hundred miles I've gone today
C              G            F
And tomorrow's five hundred more
C          G          F
Outside my window the world passes by
C             G      F
It's stranger than a dream

F         G    C
Just like fire would, I burn
F         G    C
Just like fire would
F         G    C
Just like fire would, I burned up

E---------------------------------------|
B---------------------------------------|
G---------------------------------------|
D-------------0-2-0--------------0-2-0--|
A--3-2-0-2-3----------3-2-0-2-3---------|
E---------------------------------------|

C       G          F
I go to work and I earn my pay load
C        G            F
My sweat falls to the ground
C         G              F
I see you now but we may never meet again, child
C          G              F
The ice is hanging on the door

   C  G  F               C  G  F        
E-----------------------------------------------------|
B-----------------------------------------------------|
G------0----------------------0-----------------------|
D---------4-2-0-0--2-2-----------4-2-0-----0----------|
A---------------------------------------2-----2-0-----|
E--3---------------------3----------------------------|

       C  G  F               C  G  F
E-----------------------------------------------------|
B-----------------------------------------------------|
G------0----------------------0-----------------------|
D---------4-2-0-0--2-2-----------4-2-0-----0----------|
A---------------------------------------2-----2-0-----|
E--3---------------------3----------------------------|

C   G          F
One night in a motel room

E---------------------|
B---------------------|
G---------------------|
D---------------------|
A--2-3-0-2------------|
E-----------3---------|

C    G         F
Eyes cast like steel
C           G              F
I drank the wine that they left on my table

E------------------------|
B------------------------|
G------------------------|
D------------------------|
A--3-2-0-2-----2--0------|
E--------------------3---|

C          G               F
I knew the morning was too far

E---------------------|
B---------------------|
G---------------------|
D---------------------|
A-2-3-2-0-------------|
E----------3----------|

F         G    C
Just like fire would, I burn
F         G    C
Just like fire would
F         G    C
Just like fire would, I burned up

E---------------------------------------|
B---------------------------------------|
G---------------------------------------|
D-------------0-2-0--------------0-2-0--|
A--3-2-0-2-3----------3-2-0-2-3---------|
E---------------------------------------|

F         G    C
Just like fire would, I burn
F         G    C
Just like fire would
F         G    C
Just like fire would, I burned up

   C  G  F               C  G  F 
E-----------------------------------------------------|
B-----------------------------------------------------|
G------0----------------------0-----------------------|
D---------4-2-0-0--2-2-----------4-2-0-----0----------|
A---------------------------------------2-----2-0-----|
E--3---------------------3----------------------------|

   C  G  F               C  G  F 
E-----------------------------------------------------|
B-----------------------------------------------------|
G------0----------------------0-----------------------|
D---------4-2-0-0--2-2-----------4-2-0-----0----------|
A---------------------------------------2-----2-0-----|
E--3---------------------3----------------------------|

   C  G  F               C  G  F 
E-----------------------------------------------------|
B-----------------------------------------------------|
G------0----------------------0-----------------------|
D---------4-2-0-0--2-2-----------4-2-0-----0----------|
A---------------------------------------2-----2-0-----|
E--3---------------------3----------------------------|

   C  G  F               C  G  F 
E-----------------------------------------------------|
B-----------------------------------------------------|
G------0----------------------0-----------------------|
D---------4-2-0-0--2-2-----------4-2-0-----0----------|
A---------------------------------------2-----2-0-----|
E--3---------------------3----------------------------|
Suggest correction
comments
print report bad tab
3 comments total.
0 reply
epiphone.sg427 74 Jan 24, 2014 10:39 AM

Nailed it except for the trumpet interlude!

0 reply
djasonb 10 Mar 06, 2014 06:57 AM

This is a song by The Saints

0 reply
blindterry333 2,494 Mar 11, 2014 04:43 PM

I just tabbed out the intro (two versions) and the horns sections so everyone keep an eye out!

guest
You may want to rate the tab now too:
select rating
Wanna post a correction for this tab? Suggest correction