Oops, an error
Loading. Please wait.

Pony Boy Tab

5,481 views 6 this week
no commentswrite comment
1 2 3 4 5
x 9
add to favorites
launch autoscroll
font size
0
reset
how to read this tab
guitar tuner
Autoscroll
slow
fast
+/-
esc
set tempo
stop
Help us to improve Ultimate-Guitar.com Take our survey!
×
Author
Difficulty
maguri [tm] 27,084
intermediate
---------------------------------------------------------------------------
                Pony Boy - Bruce Springsteen
---------------------------------------------------------------------------
Tabbed by: maguri
Tuning: Standard

Bruce Springsteen
Pony Boy (1992)
(Trad.; arr. and add. lyrics: Bruce Springsteen)

From: "Human Touch"

---------------------------------------------------------------------------

Capo 5th fret

INTRO
  C                                 F                C
e|----3-------3---|0---------------|----------------|----------------|
B|1-----1---------|--1-----1-------|--------1-----1-|--------1-------|
G|0---------0---0-|----------0---0-|0h2---2---2-----|------0---0---0-|
D|2---------------|------2---------|----3-------3---|----2-------2---|
A|3-------3-------|----3-------3---|----------------|3---------------|
E|----------------|----------------|----------------|----------------|
  C                C       F        G(sus4)          C
e|--------0-------|----------------|----------------|--------0-------|
B|----------1---1-|----1---------1-|--------1-1---1-|----------1-----|
G|------0-----0---|--0---0-------2-|------0-----0---|------0---------|
D|----2-----------|------------3---|----0-----------|----2-----------|
A|3---------------|3---------------|----------------|3-----------3---|
E|----------------|--------1-------|3---------------|----------------|


VERSE (1)
  C                                 F/C              C
e|--------0-------|--------0-------|----------------|--------0-------|
B|----------1---1-|----------1---1-|--------1-------|----------1---1-|
G|------0-----0---|------0-----0---|------2---2---2-|------0-----0---|
D|----2-----------|----2-----------|----3-------3---|----2-----------|
A|3---------------|3---------------|3---------------|3---------------|
E|----------------|----------------|----------------|----------------|
  C                C       F        G               C
e|--------0-------|----------------|----------------|----------------|
B|----------1---1-|----------------|--------1-------|--------1-------|
G|------0-----0---|----0---------2-|------0-------0-|------0---0-----|
D|----2-----------|--2---2-----3---|----0-------0---|----2---------2-|
A|3---------------|3---------------|----------------|3-----------3---|
E|----------------|--------1-------|3---------------|----------------|

VERSE (2)
  C                                 F                C
e|--------0-------|--------0-------|----------------|--------0-------|
B|----------1---1-|----------1---1-|--------1-------|----------1---1-|
G|------0-----0---|------0-----0---|------2---2---2-|------0-----0---|
D|----2-----------|----2-----------|----3-------3---|----2-----------|
A|3---------------|3---------------|----------------|3---------------|
E|----------------|----------------|1---------------|----------------|
  C                C       F        G                C
e|--------0-------|----------------|----------------|--------0-------|
B|----------1---1-|----------------|--------1-------|------1---1-----|
G|------0-----0---|----0---------2-|------0-------0-|----------------|
D|----2-----------|--2---2-----3---|----0-------0---|----2---------2-|
A|3---------------|3---------------|----------------|3-----------3---|
E|----------------|--------1-------|3---------------|----------------|


SOLO BREAK
  C                                 F                C
e|0-------3-------|0---------------|----------------|----------------|
B|--1-------1-----|--1-----1-------|------1-----1---|--------1-------|
G|----------------|----------0---0h|2---------------|----------0-----|
D|------2-------2-|------2---------|----3-----3-----|2-----2-----0h2-|
A|----3-------3---|----3-------3---|--3-----3-----3-|----3-----------|
E|----------------|----------------|----------------|----------------|
  C                C       F        G                C
e|----------------|0---------------|--------3-------|--------0-------|
B|--------1-------|--1-------------|--------------1-|----------1-----|
G|0---------0-----|------0h2-----0-|------0---0-----|------0-------0-|
D|------2-------2-|------------3---|----0-------0---|----2-------2---|
A|----3-------3---|----3-----------|----------------|3---------------|
E|----------------|--------1-------|3---------------|----------------|


HARP SOLO
  C                                 F                C
e|3-----------3---|0---------------|----------------|----------------|
B|----------------|--------1-------|--------1---1---|--------1-------|
G|----0-----------|--0---0-------0h|2-----2-------0-|------0---0---0-|
D|------2---2---2-|----2-------2---|----3-----3-----|----2-------2---|
A|--------3-------|----------3-----|----------------|3---------------|
E|----------------|----------------|--1-------------|----------------|
  C                C       F        G                C
e|0---------------|----------------|--------3-------|--------0-------|
B|--------1-------|----1---------1-|----------------|----------1-----|
G|------0-----0---|------0-----2---|------0---0---0-|------0-------0-|
D|----2---------2-|--2-------3-----|----0-------0---|----2-------2---|
A|--3-------3-----|3---------------|----------------|3---------------|
E|----------------|--------1-------|3---------------|----------------|


LAST VERSE
  C                                 F/C              C
e|--------0-------|--------0-------|----------------|--------0-------|
B|----------1---1-|----------1---1-|--------1-------|----------1---1-|
G|------0-----0---|------0-----0---|------2---2---2-|------0-----0---|
D|----2-----------|----2-----------|----3-------3---|----2-----------|
A|3---------------|3---------------|----------------|3---------------|
E|----------------|----------------|1---------------|----------------|
  C                [2/4]C   [4/4]F(maj7)
e|--------0-------|--------|--------------0-|--------0-------|
B|----------1---1-|--------|--------1-----1-|----------1-----|
G|------0-----0---|----0---|------2---2-----|------2-----2---|
D|----2-----------|--2---2-|----3-------3---|----3-----------|
A|3---------------|3-------|----------------|----------------|
E|----------------|--------|1---------------|1---------------|
  G                C
e|--------3-------|--------0-------|
B|----------------|----------------|
G|------0---0---0-|------0---0---0-|
D|----0-------0---|----2-------2---|
A|----------------|3---------------|
E|3---------------|----------------|

---------------------------------------------------------------------------

INTRO
| C | C | F | C |
| C | C F | G(sus4) | C |


VERSE (1)
C
Pony boy pony boy
F               C
Won't you be my pony boy
C                          F
Giddy-up giddy-up giddy-up whoa
G       C
My pony boy


VERSE (2)
C
Ride with me ride with me
F                C
Won't you take a ride with me
C                     F
Underneath the starry sky
G       C
My pony boy


SOLO BREAK


VERSE (2)
C
O'er the hills and through the trees
F                C
We'll go ridin' you and me
C                        F
Giddy-up giddy-up giddy-away
G       C
My pony boy


VERSE (2) (+ harmony vocal)
C
Pony boy pony boy
F               C
Won't you be my pony boy
C                          F
Giddy-up giddy-up giddy-up whoa
G       C
My pony boy


HARP SOLO


LAST VERSE (+ keyboard)
C
Down into the valley deep
F                C
'Neath the eaves we'll sleep
C                 F(maj7)
Sky of dreams up above
G       C
My pony boy


VERSE (2) (+ keyboard, harmony vocal)
C
Pony boy pony boy
F               C
Won't you be my pony boy
C                          F
Giddy-up giddy-up giddy-up whoa
G       C
My pony boy


VERSE (2) (+ keyboard, harmony vocal, tambourine)
C
Pony boy pony boy
F               C
Won't you be my pony boy
C                          F
Giddy-up giddy-up giddy-up whoa
G       C
My pony boy


Suggest correction
comments
print report bad tab
guest
You may want to rate the tab now too:
select rating
Wanna post a correction for this tab? Suggest correction