Oops, an error
Loading. Please wait.

Rosalita bass

4,446 views 9 this week
no commentswrite comment
1 2 3 4 5
1 last vote to show rating
add to favorites
×
Save as Personal and add changes to this tab that will be seen only by you. Learn more ›
×
You can save this tab as Personal to edit and correct it or add notes. All changes will be seen only by you. Learn more »
launch autoscroll
font size
0
reset
guitar tuner
backing track
0:00
0:00
edit
Autoscroll
slow
fast
+/-
esc
set tempo
stop
Bruce Springsteen
Rosalita 
bass tab

  intro
|----------------|----------------|----------------|----------------|
|----------------|----------------|----------------|----------------|
|----------------|----------------|----------------|----------------|
|----------------|----------8/----|13--------------|---------13-11\-|

|----------------|----------------|----------------|----------------|
|----------------|----------------|----------------|----------------|
|8---------------|----------------|8-----------8---|----------------|
|----------------|------6---7-8-6-|------6---------|--10----8---8---|

  verse 1
|----------------|----------------|
|3---------------|3---------------|*
|------1---0-1-0-|------3---1-3-1-|*
|----------------|----------------|

|----------------|----------------|----------------|----------------|
|----------------|----------------|----------------|------10-12-----|
|1-----1-1-----1-|--1---1-1-1-/-.-|0-----.-12----12|----------------|
|----------------|----------------|----------------|10--------------|

|----------------|----------------|----------------|----------------|
|10---10-10----10|--10--------8---|----------------|----------3-5---|
|----------------|------10------8-|----------------|----------------|
|----------------|--------8-------|6-----6-6-----6-|--6---6-6-------|

|----------53035-|----------53035-|5-3---3---------|----------------|
|----------------|----------------|----5---5-3-4-5-|----------------|
|3-----3---------|3-----3---------|----------------|3-0-1-3-----1-0-|
|----------------|----------------|----------------|--------1-0-----|

  verse 2
|----------------|----------------||----------------|----------------|
|--------------1-|3---------------||3---------------|3---------------|*
|----3-1-----3---|------3---1-3-1-||------1---0-1-3-|------3---1-3-1-|*
|1---------------|----------------||----------------|----------------|

|----------------|----------------|----------------|----------------|
|----------------|----------------|----------------|0-----10-12-----|
|1-----1-1-.-.-1-|--1---1-1-1-/-.-|0-----.-.---12\-|----------------|
|----------------|----------------|----------------|----------------|

|----------------|----------------|-------------^10|----------------|
|10---10-10----10|--10--10--------|----------------|--10------------|
|----------------|----------10--8-|----------------|------8\----8---|
|----------------|-----------.8--.|6-----6-6-------|----------8-----|

|------5---53035-|------5---53035-|------5---53035-|5-5-5-5-5-5-----|
|----------------|----------------|----------------|----------------|
|3---------------|3---------------|3---------------|------------3-/-|
|----------------|----------------|----------------|----------------|

  chorus 1
|----------------|----------------|----------------|----------------|
|----------------|----------------|---10-8-------10|----------------|
|8---------------|------------5-/-|8-----------8---|------------.-.-|
|------6-6-.-.-6-|8-----8---------|----------------|--8---8-8-8-----|

|----------------|----------------|----------------|----------------|
|-----10-8---8-10|----------------|---10-8-----8-10|----------------|
|8---------11----|------------5-/-|8------11-8-----|----------------|
|----------------|8-8---8---8-----|----------------|8-8---8---.-8-8-|

|----------------|----------------|----------------|----------------|
|----------------|----------------|----10-8----8-10|----------------|
|8---------------|------------5-/-|8---------11----|----------------|
|------6-------6-|8-----8---------|----------------|----8-8-.......-|

|----------------|----------------|----------------|----------------|
|---10-8-----8-10|----------------|----------------|----------------|
|8---------11----|----------------|8---------------|----------------|
|----------------|--8---8---8-1011|------6---5-6-8-|--.-8-.-8-.-8-.-|

    verse 3
|----------------|----------------|
|3---------------|3---------------|*
|------1---0-1-0-|------3---1-3-1-|*
|----------------|----------------|

|----------------|----------------|----------------|----------------|
|----------------|----------------|----------------|----------5-----|
|1-----1-1-----1-|--1---1---1-1---|3-----3-3-----3-|--3---3-----3---|
|----------------|----------------|----------------|----------------|

|----------------|----------------|----------------|--------7-------|
|----------------|----------3-----|------7-------7-|------------//--|
|1-----1-1-.-.-1-|--1---1-1---1-.-|0-------0-------|5---------------|
|----------------|----------------|----------------|----------------|

|----------------|----------------|----------------|----------------|
|10---10-10------|----------------|--------8-------|----------3-530-|
|----------------|----------10----|------8---------|----------------|
|--------------8-|--8---8-8----8--|6-------------6-|--6---6-6-------|

|------5---53035-|------5---53035-|------5---53035-|5-5-5-5-5-5-----|
|----------------|----------------|----------------|----------------|
|3---3-----------|3---3-----------|3---3-----------|------------3/--|
|----------------|----------------|----------------|----------------|

  chorus 2
|----------------|----------------|----------------|----------------|
|----------------|----------------|----------------|----------------|
|8---8-----------|------------5-6-|8-----8---------|------------5-6-|
|------6-6-.---6-|8-----8-8-.-----|--------6-----6-|8-----8-8-8-----|

|----------------|----------------|----------------|----------------|
|------8-6-------|--10------------|------6-8-----10|----------------|
|8---------8-6---|------------8---|8\--------------|--------10--10--|
|--------------8-|------8---8---8-|----------------|8-8---8---8---8-|

  solo
|----------------|----------------|----------------|----------------|
|----------------|----------------|-------11-11----|-------11-11----|
|----------------|--------10^-10--|----------------|----------------|
|8-----8-8-----8-|--8---8---------|9-----9-------9-|--9---9-------9-|

|----------------|----------------|----------------|----------------|
|-------12-12----|-------12-*-*-*-|-------13-13----|-------13-*-*-*-|
|----------------|----------------|----------------|----------------|
|10----10------10|--10--10--------|11----11------11|--11--11--------|

|----------------|----------------|----------------|----------------|
|-------14-14----|-------14-*-*-*-|----------------|----------------|
|----------------|----------------|--------7-7-----|--------7---7---|
|12----12------12|--12--12--------|12-0--0-------0-|--0---0---0---0-|

|----------------|----------------|----------------|----------------|
|----------------|----------------|----------------|----------------|
|7-------7-------|7---7---7---7---|7-7-7-7-7-7-7-7-|7-7-7-7-7-7-.-.-|
|--0-0-0---0-0-0-|--0---0---0---0-|----------------|----------------|

|----------------|----------------|----------------|----------------|
|----------------|----------------|----------------|----------------|
|8---------------|----------------|----------------|----------------|
|----------------|--------8---8---|----------------|------0-8---8---|

|----------------|----------------|----------------|----------------|
|----------------|----------------|----------------|----------------|
|8---------------|----------------|8---------------|----------------|
|----------------|--------8---8---|----------.-.-6-|8-8-8---8-.-8-.-|

|----------------|----------------|----------------|----------------|
|----------------|----------------|------8---6-8-10|----------------|
|6-8-------------|----------------|6-8-------------|----------------|
|------6---.-6-.-|8-8---6-8-6-8-.-|----------------|--8---.-8-.-8---|

|----------------|----------------|----------------|----------------|
|------8---6-8-10|----------------|------8---6-8-10|----------------|
|6-8-------------|----------------|6-8-------------|----------------|
|----------------|--8---.-8-.-8---|----------------|--8---.-8-.-8/--|

  riff
|--------------------------------|--------------------------^-----|
|--------------------------------|----------------13^-13--12--13--|
|--------------------------------|--------------------------------|
|13------------------------------|--------------------------------|

|--------------------------*^15--|--------------------------------|
|15------------------------------|--*^15------13------------------|
|--------------------------------|--------------------15--13--15--|
|--------------------------------|--------------------------------|

|----------------|----------------|----------------|----------------|
|----------------|----------------|--------------3-|--3-------------|
|--------------8-|--8---6---------|--------1-3-----|------1--.1-2---|
|13------6-8-6---|----------8-6---|1---------------|----------------|
    bridge
|--------------3-|5-----3-5-------|----------------|----------------|
|----------------|--5-------3-5---|5-------------3-|5-5-------------|
|3---------------|--------------3-|----------------|--------1---3---|
|----------------|----------------|----------------|------3---3---3-|

|----------------|----------------|----------------|----------------|
|-----10-12---14^|--14--12--------|----------------|----------------|
|5---------------|--------------10|12--------------|12-----12-------|
|----------------|----------13----|--------------10|----10----------|

|----------------|----------------|----------------|----------------|
|--------3-------|--------3-------|--------------5-|----------------|
|------3-------3-|------3---------|------------5---|--------------3-|
|1---------------|1---------------|3---------------|--3---5---6-----|

|----------------|----------------|----------------|----------------|
|----------------|11-12-----------|----------------|----------------|
|5---------------|--------------10|12--------------|12--------------|
|--------------10|----10-10--13---|--------------12|----------------|

|----------------|----------------|----------------|----------------|
|----------------|----------------|3-----------3-5-|7---------------|
|------------5---|3-------3---3---|----------5-----|----------------|
|6-6---6-6-------|------3---3-----|----------------|----------------|

|----------------|----------------|----
|----------------|----------------|----
|5---------------|----------------|----
|----------------|6---------------|8---

|----------------|----------------|----------------|----------------|
|----------------|----------------|----------------|----------------|
|----------------|----------------|6-----6-6-----6-|----------------|
|3-.-.-.-.-------|----------------|----------------|6-----6-----6---|

|------5---53035-|------5---53035-|------5---53035-|5-5-5-5---------|
|----------------|----------------|----------------|----------------|
|3---3-----------|3---3-----------|3---3-----------|----------------|
|----------------|----------------|----------------|----------------|

  verse 4
|----------------|----------------|
|3---------------|3---------------|*
|------1---0-1-0-|------3---1-3-1-|*
|----------------|----------------|

|----------------|----------------|----------------|------5-7-------|
|----------------|----------3-----|--------7-----7-|----------------|
|1-----1-1-----1-|--1---1-1---1-.-|0-----0---------|5-----------5/--|
|----------------|----------------|----------------|----------------|

|----------------|----------------|----------------|----------------|
|10---10-10----10|--10--10-10-----|8-----8-8-----8-|--8-------------|
|----------------|----------10----|----------------|------8-----8---|
|----------------|------------8-6-|----------------|--------6-----6-|

|----------------|----------------|
|7-----------7---|----------------|
|----------7---7-|5-----.-.-./----|
|----------------|----------------|

|-------------^-.|-------------^-.|-------------^-.|-------------^-.|
|10-------10-8-10|-----10--10-8-10|-----10--10-8-10|-----10--10-8-10|
|----------------|----------------|----------------|----------------|
|------8---------|8---------------|8--.8-----------|8--.8-----------|

|----------------|----------------|
|10..10..10..10..|10--------------|
|----------------|----------------|
|----------------|------------6\--|


  end chorus
|----------------|----------------|----------------|----------------|
|------------1-0-|------------0-1-|3-----3-----1-0-|------------0-1-|
|------1-1-------|3-----3---------|--------1-------|3-----3-3-3-----|
|1---------------|----------------|----------------|----------------|

|----------------|----------------|
|3-3---3-------1-|------------0-1-|*
|--------1-1-----|3-----3-3-3-----|*
|----------------|----------------|

|----------------|----------------|
|----------------|----------------|*
|--------1-1-1---|--------3-3-3---|*
|1-1-1-----------|1-1-1-----------|

|----------------|----------------|
|----------------|3---------------|*
|------1---1-011-|------3---3-133-|*
|1---------------|----------------|
  



standard tuning (EADG)

| /  slide up
| \  slide down
| h  hammer-on
| p  pull-off
| ~  vibrato
| +  harmonic
| x  Mute note

| .   incidental note (usually open string)
| ^   pre-struck note (hammer-on, pull-off)
| =   rest

display in fixed-width font
one space ("-") = 1/16 note



            
            
Suggest correction
Creating personal tab
Creating personal tab
You can edit any tab online and save it as your Personal.

You can edit, replace or remove any tab part or add personal notes – all changes will be seen only by you.

Personal tabs can be accessed anytime from any device, even offline.
Learn more »
Give kudos to tab author, rate the tab!
1 2 3 4 5
comments
print report bad tab
guest
You may want to rate the tab now too:
select rating
Wanna post a correction for this tab? Suggest correction