Oops, an error
Loading. Please wait.

State Trooper tab

version 1
version 1

Whole song

32,511 views 72 this week
1 commentread comment
1 2 3 4 5
x 31
add to favorites
×
Save as Personal and add changes to this tab that will be seen only by you. Learn more ›
×
You can save this tab as Personal to edit and correct it or add notes. All changes will be seen only by you. Learn more »
launch autoscroll
font size
0
reset
how to read this tab
guitar tuner
edit
Autoscroll
slow
fast
+/-
esc
set tempo
stop
Author
Difficulty
State Trooper - Bruce Springsteen

Am                   Am                   D                    Am
--------------------|--------------------|--------------------|--------------------|
--------------------|--------------------|--------------------|--------------------|
--------------------|--------------------|--------------------|--------------------|
--2-2-2-2--2-2-2-2--|--2-2-2-2--2-2-2-2--|--0-0-0-0--0-0-0-0--|--2-2-2-2--2-2-2-2--|
--0-0-3-0--0-0-3-0--|--0-0-3-0--0-0-3-0--|--0-0-3-0--0-0-3-0--|--0-0-3-0--0-0-3-0--|
--------------------|--------------------|--------------------|--------------------|


[Verse]
Am
New Jersey Turnpike, ridin' on a wet night 
  D                                       Am
`neath the refin'ry's glow out where the great black rivers flow

License, registration: I ain't got none
       D                                Am
But I got a clear conscience `bout the things that I done

Mister state trooper, please don't stop me
  D                    Am
Please don't stop me, please don't stop me


Maybe you got a kid, maybe you got a pretty wife
   D                                             Am
The only thing that I got's been both'rin' me my whole life

Mister state trooper, please don't stop me
  D                     Am
Please don't stop me, please don't stop me


In the wee, wee hours your mind get hazy
D                   Am
Radio relay towers lead me to my baby

The radio's jammed up with talk show stations
           D                                   Am
It's just talk, talk, talk, talk, till you lose your patience

Mister state trooper, please don't stop me

Am 
Oooooh Oooooh

Hey, somebody out there, listen to my last prayer

Hiho silver-o, deliver me from nowhere

Oooooh

            
            
Suggest correction
Creating personal tab
Creating personal tab
You can edit any tab online and save it as your Personal.

You can edit, replace or remove any tab part or add personal notes – all changes will be seen only by you.

Personal tabs can be accessed anytime from any device, even offline.
Learn more »
comments
print report bad tab
1 comment total.
+2 reply
KerNeL_KLuTcH 384 Jan 13, 2014 10:33 PM

Am
--------------------|
--------------------|
--------------------|
--------------------|
--7-7-7-7--7-7-7-7--|
--5-5-8-5--5-5-8-5--|

D
--------------------|
--------------------|
--------------------|
--7-7-7-7--7-7-7-7--|
--5-5-8-5--5-5-8-5--|
--------------------|

playing it like that will give you that low end heard on the record.

guest
You may want to rate the tab now too:
select rating
Wanna post a correction for this tab? Suggest correction