Oops, an error
Loading. Please wait.

State Trooper tab

version 3
version 3

Whole song

454 views 3 this week
no commentswrite comment
1 2 3 4 5
3 more votes to show rating
add to favorites
×
Save as Personal and add changes to this tab that will be seen only by you. Learn more ›
×
You can save this tab as Personal to edit and correct it or add notes. All changes will be seen only by you. Learn more »
launch autoscroll
font size
0
reset
how to read this tab
guitar tuner
edit
Autoscroll
slow
fast
+/-
esc
set tempo
stop
---------------------------------------------------------
      Bruce Springsteen-State Trooper (Live 1996)
-----------------------------------------------------------
Tab By:Nick V.
Email:BlindTerry333@gmail.com

"Brixton Night" Version. London, ENG 1996.

https://www.youtube.com/watch?v=JElnWbkmc8M

G:5x03x

[Intro]

e|-------------------------------------------------------------------------------|
B|-3-3-3-3-----------------------------------------------------------------------| 
G|-2-2-2-2-----------------------------------------------------------------------| 
D|-0-0-0-0-----------------------------------------------------------------------| 
A|-0-0-0-0-----------------------------------------------------------------------| 
D|-0-0-0-0-----------------------------------------------------------------------|

e|-------------------------------------------------------------------------------|
B|-------------------------------------------------------------------------------| 
G|-2-2------2-2-2------2-2-2------2-2-2--------2---------------------------------| 
D|-0-0--3---0-0-0--3---0-0-0--3---0-0-0---0h3------------------------------------| 
A|-0-0--3---0-0-0--3---0-0-0--3---0-0-0------------------------------------------| 
D|-0-0--3---0-0-0--3---0-0-0--3---0-0-0------------------------------------------|

[Verse]

   PM      PM        PM        PM        PM        PM        PM        PM
e|--------------------------------------------------------------------------------|
B|--------------------------------------------------------------------------------| 
G|-2-2-----2-2-2-----2-2-2------2-2-2-----2-2-2-----2-2-2-----2-2-2-----2-2-2-----| 
D|-0-0--3--0-0-0--3--0-0-0--3---0-0-0--3--0-0-0--3--0-0-0--3--0-0-0--3--0-0-0--3--| 
A|-0-0--3--0-0-0--3--0-0-0--3---0-0-0--3--0-0-0--3--0-0-0--3--0-0-0--3--0-0-0--3--| 
D|-0-0--3--0-0-0--3--0-0-0--3---0-0-0--3--0-0-0--3--0-0-0--3--0-0-0--3--0-0-0--3--|

D
New Jersey Turnpike riding on a wet night
D
'Neath the refinery's glow out where the great black rivers flow
D
License, registration, I ain't got none
                       G
But I got a clear conscience 'bout the things that I done

[Chorus]

    PM      PM        PM        PM        PM        PM        PM        PM
e|--------------------------------------------------------------------------------|
B|--------------------------------------------------------------------------------| 
G|-2-2-----2-2-2-----2-2-2------2-2-2-----2-2-2-----2-2-2-----2-2-2-----2-2-2-----| 
D|-0-0--3--0-0-0--3--0-0-0--3---0-0-0--3--0-0-0--3--0-0-0--3--0-0-0--3--0-0-0--3--| 
A|-0-0--3--0-0-0--3--0-0-0--3---0-0-0--3--0-0-0--3--0-0-0--3--0-0-0--3--0-0-0--3--| 
D|-0-0--3--0-0-0--3--0-0-0--3---0-0-0--3--0-0-0--3--0-0-0--3--0-0-0--3--0-0-0--3--|

D
Mister state trooper, please don't stop me
                                   G
Please don't stop me, please don't stop me

[Verse]

   PM      PM        PM        PM        PM        PM        PM        PM
e|--------------------------------------------------------------------------------|
B|--------------------------------------------------------------------------------| 
G|-2-2-----2-2-2-----2-2-2------2-2-2-----2-2-2-----2-2-2-----2-2-2-----2-2-2-----| 
D|-0-0--3--0-0-0--3--0-0-0--3---0-0-0--3--0-0-0--3--0-0-0--3--0-0-0--3--0-0-0--3--| 
A|-0-0--3--0-0-0--3--0-0-0--3---0-0-0--3--0-0-0--3--0-0-0--3--0-0-0--3--0-0-0--3--| 
D|-0-0--3--0-0-0--3--0-0-0--3---0-0-0--3--0-0-0--3--0-0-0--3--0-0-0--3--0-0-0--3--|

D  
Maybe you got a kid, maybe you got a pretty wife
             G
The only thing that I got's been bothering me my whole life

[Chorus]

   PM      PM        PM        PM         PM         PM         PM         PM
e|--------------------------------------------------------------------------------|
B|--------------------------------------------------------------------------------| 
G|-2-2-----2-2-2-----2-2-2------2-2-2-----2-2-2-----2-2-2-----2-2-2-----2-2-2-----| 
D|-0-0--3--0-0-0--3--0-0-0--3---0-0-0--3--0-0-0--3--0-0-0--3--0-0-0--3--0-0-0--3--| 
A|-0-0--3--0-0-0--3--0-0-0--3---0-0-0--3--0-0-0--3--0-0-0--3--0-0-0--3--0-0-0--3--| 
D|-0-0--3--0-0-0--3--0-0-0--3---0-0-0--3--0-0-0--3--0-0-0--3--0-0-0--3--0-0-0--3--|

D
Mister state trooper, please don't stop me
D
Please don't stop me, please don't stop me
D
Mister state trooper, please don't stop me
D
Please don't you stop me, please don't stop me

   PM       PM         PM         PM
e|--------------------------------------------------------------------------------|
B|-3-3------3-3-3------3-3-3------3-3-3-------------------------------------------| 
G|-2-2------2-2-2------2-2-2------2-2-2---------2---------------------------------| 
D|-0-0--3---0-0-0--3---0-0-0--3---0-0-0----0h3------------------------------------| 
A|-0-0--3---0-0-0--3---0-0-0--3---0-0-0-------------------------------------------| 
D|-0-0--3---0-0-0--3---0-0-0--3---0-0-0-------------------------------------------|

[Verse]

   PM      PM        PM          PM        PM        PM        PM        PM
e|--------------------------------------------------------------------------------|
B|--------------------------------------------------------------------------------| 
G|-2-2-----2-2-2-----2-2-2------2-2-2-----2-2-2-----2-2-2-----2-2-2-----2-2-2-----| 
D|-0-0--3--0-0-0--3--0-0-0--3---0-0-0--3--0-0-0--3--0-0-0--3--0-0-0--3--0-0-0--3--| 
A|-0-0--3--0-0-0--3--0-0-0--3---0-0-0--3--0-0-0--3--0-0-0--3--0-0-0--3--0-0-0--3--| 
D|-0-0--3--0-0-0--3--0-0-0--3---0-0-0--3--0-0-0--3--0-0-0--3--0-0-0--3--0-0-0--3--|

D
In the wee wee hours your mind gets hazy
G
Radio relay towers gonna lead me to my baby

   PM      PM        PM         PM        PM        PM        PM        PM
e|--------------------------------------------------------------------------------|
B|--------------------------------------------------------------------------------| 
G|-2-2-----2-2-2-----2-2-2------2-2-2-----2-2-2-----2-2-2-----2-2-2-----2-2-2-----| 
D|-0-0--3--0-0-0--3--0-0-0--3---0-0-0--3--0-0-0--3--0-0-0--3--0-0-0--3--0-0-0--3--| 
A|-0-0--3--0-0-0--3--0-0-0--3---0-0-0--3--0-0-0--3--0-0-0--3--0-0-0--3--0-0-0--3--| 
D|-0-0--3--0-0-0--3--0-0-0--3---0-0-0--3--0-0-0--3--0-0-0--3--0-0-0--3--0-0-0--3--|

D
The radio's jammed up with talk show stations
       G
It's just talk, talk, talk, talk, till you lose your patience
D                       G                   
Mister state trooper, please don't stop me

[Outro] 

   PM      PM        PM         PM         PM        PM        PM        PM
e|--------------------------------------------------------------------------------|
B|--------------------------------------------------------------------------------| 
G|-2-2-----2-2-2-----2-2-2------2-2-2-----2-2-2-----2-2-2-----2-2-2-----2-2-2-----| 
D|-0-0--3--0-0-0--3--0-0-0--3---0-0-0--3--0-0-0--3--0-0-0--3--0-0-0--3--0-0-0--3--| 
A|-0-0--3--0-0-0--3--0-0-0--3---0-0-0--3--0-0-0--3--0-0-0--3--0-0-0--3--0-0-0--3--| 
D|-0-0--3--0-0-0--3--0-0-0--3---0-0-0--3--0-0-0--3--0-0-0--3--0-0-0--3--0-0-0--3--|


Questions, comments, insults...BlindTerry333



************************************

| h  Hammer-on

************************************

            
            
Suggest correction
Creating personal tab
Creating personal tab
You can edit any tab online and save it as your Personal.

You can edit, replace or remove any tab part or add personal notes – all changes will be seen only by you.

Personal tabs can be accessed anytime from any device, even offline.
Learn more »
Give kudos to tab author, rate the tab!
1 2 3 4 5
comments
print report bad tab
guest
You may want to rate the tab now too:
select rating
Wanna post a correction for this tab? Suggest correction