Oops, an error
Loading. Please wait.

The Nothing chords

16 views 3 this week
no commentswrite comment
1 2 3 4 5
2 more votes to show rating
add to favorites
×
Save as Personal and add changes to this tab that will be seen only by you. Learn more ›
×
You can save this tab as Personal to edit and correct it or add notes. All changes will be seen only by you. Learn more »
launch autoscroll
font size
0
reset
transpose
0
reset
display chords
guitar tuner
edit
Autoscroll
slow
fast
+/-
esc
set tempo
stop
Strumming
There is no strumming pattern for this song yet. and get +5 IQ
[Intro]

  C                    Am
e|-------------------|---------------0---|
B|---------3-------3-|------3------3---3-|
G|-------------------|-------------------|x4
D|-----2-------2-----|---2------2--------|
A|---3-------3-------|-0------0----------|
E|-------------------|-------------------|


[Verse]

C                    Am
You're going on your own
                 C
to find a better way
                     Am
the path will not be shown
                    C
but you must find a way
C              Am
SOMEDAY-YOU'LL FIND THE TRUTH
C            Am
SOMEDAY-GOOD LUCK ATREYU
C              Am
SOMEDAY-YOU'LL DESTROY THE NOTHING TOO
C             Am
SOMEDAY-THE EMPRESS WILL LOVE YOU


[Bridge]

  C                    Am
e|-------------------|---------------0---|
B|---------3-------3-|------3------3---3-|
G|-------------------|-------------------|x4
D|-----2-------2-----|---2------2--------|
A|---3-------3-------|-0------0----------|
E|-------------------|-------------------|


[Verse]

C                    Am
You're going on your own
                       C
no weopens to keep you safe
               Am
the Orin is on loan
                   C
to help you on the way


[Chorus]

Em           C
Ortex in the Swamp of Saddness
        Em           C
was the first time I ever cried
    Em         C
the horse was your best friend
C                      Am
and I had to watch him die

            
            
Suggest correction
Creating personal tab
Creating personal tab
You can edit any tab online and save it as your Personal.

You can edit, replace or remove any tab part or add personal notes – all changes will be seen only by you.

Personal tabs can be accessed anytime from any device, even offline.
Learn more »
Give kudos to tab author, rate the tab!
1 2 3 4 5
comments
print report bad tab
guest
Wanna post a correction for this tab? Suggest correction