Oops, an error
Loading. Please wait.

24K Magic Bass Tab

version 1
version 1

Whole song

Interactive

8,752 views 879 this week
1 commentread comment
1 2 3 4 5
x 5
add to favorites
launch autoscroll
font size
0
reset
guitar tuner
Autoscroll
slow
fast
+/-
esc
set tempo
stop
Help us to improve Ultimate-Guitar.com Take our survey!
×
Author
Difficulty
novice
There are only 2 parts in this song, get funky with it and use an octaver

Watch my cover: https://www.youtube.com/watch?v=7FOt4GSvfX8

[Chorus]

G|---------------------------------------------------------------------------|
D|------------6-8--8/10-8--6h8-8---8-8--8/10--8-8p6--8-6---------------------|
A|-8--8---6-8----------------------------------------------------------------|
E|---------------------------------------------------------------------------|

G|---------------------------------------------------------------------------|
D|------------6-8--8/10-8--6h8-8---8-8--8/10--8-6h8p6--8-8-------------------|
A|-8--8---6-8----------------------------------------------------------------|
E|---------------------------------------------------------------------------|

G|---------------------------------------------------------------------------|
D|------------6-8--8/10-8--6h8-8---8-10-11--10--8----------------------------|
A|-8--8---6-8----------------------------------------------------------------|
E|---------------------------------------------------------------------------|

G|---------------------------------------------------------------------------|
D|------------6-8--8/10-8--6h8-8---8---8-8-----------------------------------|
A|-8--8---6-8----------------------------------------------------------------|
E|---------------------------------------------------------------------------|

[Verse]

G|---------------------------------------------------------------------------|
D|------------6-8--8/10-8--6h8-8---8-8--8/10--8-8p6--8-6---------------------|
A|-8--8---6-8----------------------------------------------------------------|
E|---------------------------------------------------------------------------|

G|---------------------------------------------------------------------------|
D|------------6-8--8/10-8--6h8-8---8-8--8/10--8-6h8p6--8-8-------------------|
A|-8--8---6-8----------------------------------------------------------------|
E|---------------------------------------------------------------------------|

G|---------------------------------------------------------------------------|
D|------------6-8--8/10-8--6h8-8---8-10-11--10--8----------------------------|
A|-8--8---6-8----------------------------------------------------------------|
E|---------------------------------------------------------------------------|

G|---------------------------------------------------------------------------|
D|------------6-8--8/10-8--6h8-8---8---8-8-----------------------------------|
A|-8--8---6-8----------------------------------------------------------------|
E|---------------------------------------------------------------------------|

[Prechorus]

G|---------------------------------------------------------------------------|
D|-11-----------------------------------------11-----------------------------|
A|------------------------8-----------------------------------8--------------|
E|---------------------------------------------------------------------------|

G|---------------------------------------------------------------------------|
D|-11---------------10------------------------11-----------------------------|
A|-------------8-10----10-8-----------------------------------8--------------|
E|---------------------------------------------------------------------------|

[Chorus]

G|---------------------------------------------------------------------------|
D|------------6-8--8/10-8--6h8-8---8-8--8/10--8-8p6--8-6---------------------|
A|-8--8---6-8----------------------------------------------------------------|
E|---------------------------------------------------------------------------|

G|---------------------------------------------------------------------------|
D|------------6-8--8/10-8--6h8-8---8-8--8/10--8-6h8p6--8-8-------------------|
A|-8--8---6-8----------------------------------------------------------------|
E|---------------------------------------------------------------------------|

G|---------------------------------------------------------------------------|
D|------------6-8--8/10-8--6h8-8---8-10-11--10--8----------------------------|
A|-8--8---6-8----------------------------------------------------------------|
E|---------------------------------------------------------------------------|

G|---------------------------------------------------------------------------|
D|------------6-8--8/10-8--6h8-8---8---8-8-----------------------------------|
A|-8--8---6-8----------------------------------------------------------------|
E|---------------------------------------------------------------------------|

[Verse]

G|---------------------------------------------------------------------------|
D|------------6-8--8/10-8--6h8-8---8-8--8/10--8-8p6--8-6---------------------|
A|-8--8---6-8----------------------------------------------------------------|
E|---------------------------------------------------------------------------|

G|---------------------------------------------------------------------------|
D|------------6-8--8/10-8--6h8-8---8-8--8/10--8-6h8p6--8-8-------------------|
A|-8--8---6-8----------------------------------------------------------------|
E|---------------------------------------------------------------------------|

G|---------------------------------------------------------------------------|
D|------------6-8--8/10-8--6h8-8---8-10-11--10--8----------------------------|
A|-8--8---6-8----------------------------------------------------------------|
E|---------------------------------------------------------------------------|

G|---------------------------------------------------------------------------|
D|------------6-8--8/10-8--6h8-8---8---8-8-----------------------------------|
A|-8--8---6-8----------------------------------------------------------------|
E|---------------------------------------------------------------------------|

[Prechorus]

G|---------------------------------------------------------------------------|
D|-11-----------------------------------------11-----------------------------|
A|------------------------8-----------------------------------8--------------|
E|---------------------------------------------------------------------------|

G|---------------------------------------------------------------------------|
D|-11---------------10------------------------11-----------------------------|
A|-------------8-10----10-8-----------------------------------8--------------|
E|---------------------------------------------------------------------------|

[Bridge]

G|---------------------------------------------------------------------------|
D|------------6-8--8/10-8--6h8-8---8-8--8/10--8-8p6--8-6---------------------|
A|-8--8---6-8----------------------------------------------------------------|
E|---------------------------------------------------------------------------|

G|---------------------------------------------------------------------------|
D|------------6-8--8/10-8--6h8-8---8-8--8/10--8-6h8p6--8-8-------------------|
A|-8--8---6-8----------------------------------------------------------------|
E|---------------------------------------------------------------------------|

G|---------------------------------------------------------------------------|
D|------------6-8--8/10-8--6h8-8---8-10-11--10--8----------------------------|
A|-8--8---6-8----------------------------------------------------------------|
E|---------------------------------------------------------------------------|

G|---------------------------------------------------------------------------|
D|------------6-8--8/10-8--6h8-8---8---8-8-----------------------------------|
A|-8--8---6-8----------------------------------------------------------------|
E|---------------------------------------------------------------------------|


[Chorus]

G|---------------------------------------------------------------------------|
D|------------6-8--8/10-8--6h8-8---8-8--8/10--8-8p6--8-6---------------------|
A|-8--8---6-8----------------------------------------------------------------|
E|---------------------------------------------------------------------------|

G|---------------------------------------------------------------------------|
D|------------6-8--8/10-8--6h8-8---8-8--8/10--8-6h8p6--8-8-------------------|
A|-8--8---6-8----------------------------------------------------------------|
E|---------------------------------------------------------------------------|

G|---------------------------------------------------------------------------|
D|------------6-8--8/10-8--6h8-8---8-10-11--10--8----------------------------|
A|-8--8---6-8----------------------------------------------------------------|
E|---------------------------------------------------------------------------|

G|---------------------------------------------------------------------------|
D|------------6-8--8/10-8--6h8-8---8---8-8-----------------------------------|
A|-8--8---6-8----------------------------------------------------------------|
E|---------------------------------------------------------------------------|

************************************

| h   Hammer-on
| p   Pull-off
| r   Release
| /   Slide up
| \   Slide down

************************************
Suggest correction
comments
print report bad tab
1 comment total.
0 reply
KingBass79 10 Nov 12, 2016 12:59 AM

awesome tab bro, that's an awesome cover you did as well.

guest
You may want to rate the tab now too:
select rating
Wanna post a correction for this tab? Suggest correction