Oops, an error
Loading. Please wait.

24K Magic Tab

version 1
version 1

Whole song

Interactive

1,849 views 270 this week
no commentswrite comment
1 2 3 4 5
x 4
add to favorites
launch autoscroll
font size
0
reset
how to read this tab
guitar tuner
Autoscroll
slow
fast
+/-
esc
set tempo
stop
Help us to improve Ultimate-Guitar.com Take our survey!
×
Author
Difficulty
novice
Watch my cover for reference: https://www.youtube.com/watch?v=7FOt4GSvfX8

[Chorus]

e|---------------------------------------------------------------------------|
B|-7/8---8-x-x-x-x-x-x-8-x--9--x-x-x-x-x-x-9--x------------------------------|
G|-7/8---8-x-x-x-x-x-x-8-x--10-x-x-x-x-x-x-10-x------------------------------|
D|-5/6---6-x-x-x-x-x-x-6-x--8--x-x-x-x-x-x-8--x------------------------------| 2 times
A|-7/8---8-x-x-x-x-x-x-8-x--8--x-x-x-x-x-x-8--x------------------------------|
E|---------------------------------------------------------------------------|

e|---------------------------------------------------------------------------|
B|-7/8---8-x-x-x-x-x-x-8-x--9--x-x-x-x-x-x-9--9------------------------------|
G|-7/8---8-x-x-x-x-x-x-8-x--10-x-x-x-x-x-x-8--8------------------------------|
D|-5/6---6-x-x-x-x-x-x-6-x--8--x-x-x-x-x-x-8--8------------------------------| 
A|-7/8---8-x-x-x-x-x-x-8-x--8--x-x-x-x-x-x-----------------------------------|
E|-----------------------------------------9--8------------------------------|

e|---------------------------------------------------------------------------|
B|-7/8---8-x-x-x-x-x-x-8-x--9--------------9---9-----------------------------|
G|-7/8---8-x-x-x-x-x-x-8-x--10-------------10--10----------------------------|
D|-5/6---6-x-x-x-x-x-x-6-x--8--------------8---8-----------------------------|
A|-7/8---8-x-x-x-x-x-x-8-x--8--------------8---8-----------------------------|
E|---------------------------------------------------------------------------|


[Verse]

e|---------------------------------------------------------------------------|
B|-7/8---8-x-x-x-x-x-x-8-x--9--x-x-x-x-x-x-9--x------------------------------|
G|-7/8---8-x-x-x-x-x-x-8-x--10-x-x-x-x-x-x-10-x------------------------------|
D|-5/6---6-x-x-x-x-x-x-6-x--8--x-x-x-x-x-x-8--x------------------------------| 2 times
A|-7/8---8-x-x-x-x-x-x-8-x--8--x-x-x-x-x-x-8--x------------------------------|
E|---------------------------------------------------------------------------|

e|---------------------------------------------------------------------------|
B|-7/8---8-x-x-x-x-x-x-8-x--9--x-x-x-x-x-x-9--9------------------------------|
G|-7/8---8-x-x-x-x-x-x-8-x--10-x-x-x-x-x-x-8--8------------------------------|
D|-5/6---6-x-x-x-x-x-x-6-x--8--x-x-x-x-x-x-8--8------------------------------| 
A|-7/8---8-x-x-x-x-x-x-8-x--8--x-x-x-x-x-x-----------------------------------|
E|-----------------------------------------9--8------------------------------|

e|---------------------------------------------------------------------------|
B|-7/8---8-x-x-x-x-x-x-8-x--9--------------9---9-----------------------------|
G|-7/8---8-x-x-x-x-x-x-8-x--10-------------10--10----------------------------|
D|-5/6---6-x-x-x-x-x-x-6-x--8--------------8---8-----------------------------|
A|-7/8---8-x-x-x-x-x-x-8-x--8--------------8---8-----------------------------|
E|---------------------------------------------------------------------------|

[PreChorus]

e|---------------------------------------------------------------------------|
B|-9----8---------9----8---------9----8--------------------------------------|
G|-8----8---------8----8---------8----8--------------------------------------|
D|-8----6---------8----6---------8----6--------------------------------------|
A|------8--------------8--------------8--------------------------------------|
E|-9--------------9--------------9--------------------6----8----9-----12\----|

[Chorus]

e|---------------------------------------------------------------------------|
B|-7/8---8-x-x-x-x-x-x-8-x--9--x-x-x-x-x-x-9--x------------------------------|
G|-7/8---8-x-x-x-x-x-x-8-x--10-x-x-x-x-x-x-10-x------------------------------|
D|-5/6---6-x-x-x-x-x-x-6-x--8--x-x-x-x-x-x-8--x------------------------------| 2 times
A|-7/8---8-x-x-x-x-x-x-8-x--8--x-x-x-x-x-x-8--x------------------------------|
E|---------------------------------------------------------------------------|

e|---------------------------------------------------------------------------|
B|-7/8---8-x-x-x-x-x-x-8-x--9--x-x-x-x-x-x-9--9------------------------------|
G|-7/8---8-x-x-x-x-x-x-8-x--10-x-x-x-x-x-x-8--8------------------------------|
D|-5/6---6-x-x-x-x-x-x-6-x--8--x-x-x-x-x-x-8--8------------------------------| 
A|-7/8---8-x-x-x-x-x-x-8-x--8--x-x-x-x-x-x-----------------------------------|
E|-----------------------------------------9--8------------------------------|

e|---------------------------------------------------------------------------|
B|-7/8---8-x-x-x-x-x-x-8-x--9--------------9---9-----------------------------|
G|-7/8---8-x-x-x-x-x-x-8-x--10-------------10--10----------------------------|
D|-5/6---6-x-x-x-x-x-x-6-x--8--------------8---8-----------------------------|
A|-7/8---8-x-x-x-x-x-x-8-x--8--------------8---8-----------------------------|
E|---------------------------------------------------------------------------|

[Verse]

e|---------------------------------------------------------------------------|
B|-7/8---8-x-x-x-x-x-x-8-x--9--x-x-x-x-x-x-9--x------------------------------|
G|-7/8---8-x-x-x-x-x-x-8-x--10-x-x-x-x-x-x-10-x------------------------------|
D|-5/6---6-x-x-x-x-x-x-6-x--8--x-x-x-x-x-x-8--x------------------------------| 2 times
A|-7/8---8-x-x-x-x-x-x-8-x--8--x-x-x-x-x-x-8--x------------------------------|
E|---------------------------------------------------------------------------|

e|---------------------------------------------------------------------------|
B|-7/8---8-x-x-x-x-x-x-8-x--9--x-x-x-x-x-x-9--9------------------------------|
G|-7/8---8-x-x-x-x-x-x-8-x--10-x-x-x-x-x-x-8--8------------------------------|
D|-5/6---6-x-x-x-x-x-x-6-x--8--x-x-x-x-x-x-8--8------------------------------| 
A|-7/8---8-x-x-x-x-x-x-8-x--8--x-x-x-x-x-x-----------------------------------|
E|-----------------------------------------9--8------------------------------|

e|---------------------------------------------------------------------------|
B|-7/8---8-x-x-x-x-x-x-8-x--9--------------9---9-----------------------------|
G|-7/8---8-x-x-x-x-x-x-8-x--10-------------10--10----------------------------|
D|-5/6---6-x-x-x-x-x-x-6-x--8--------------8---8-----------------------------|
A|-7/8---8-x-x-x-x-x-x-8-x--8--------------8---8-----------------------------|
E|---------------------------------------------------------------------------|

[PreChorus]

e|---------------------------------------------------------------------------|
B|-9----8---------9----8---------9----8--------------------------------------|
G|-8----8---------8----8---------8----8--------------------------------------|
D|-8----6---------8----6---------8----6--------------------------------------|
A|------8--------------8--------------8--------------------------------------|
E|-9--------------9--------------9--------------------6----8----9-----12\----|

[Bridge]

e|-11\----------------11\-----------------11\--------------11\---------------|
B|--9\-----------------9\------------------9\---------------9\---------------|
G|---------------------------------------------------------------------------|
D|---------------------------------------------------------------------------|
A|---------------------------------------------------------------------------|
E|---------------------------------------------------------------------------|

e|---------------------------------------------------------------------------|
B|-9-9-----9-9-----9-9-----9-9-----9-9-----9-9-----9-9-----9-9---------------|
G|-----8-8-----8-8-----8-8-----8-8-----8-8-----8-8-----8-8-----8-8-----------|
D|---------------------------------------------------------------------------|
A|---------------------------------------------------------------------------|
E|---------------------------------------------------------------------------|

[Chorus]

e|---------------------------------------------------------------------------|
B|-7/8---8-x-x-x-x-x-x-8-x--9--x-x-x-x-x-x-9--x------------------------------|
G|-7/8---8-x-x-x-x-x-x-8-x--10-x-x-x-x-x-x-10-x------------------------------|
D|-5/6---6-x-x-x-x-x-x-6-x--8--x-x-x-x-x-x-8--x------------------------------| 2 times
A|-7/8---8-x-x-x-x-x-x-8-x--8--x-x-x-x-x-x-8--x------------------------------|
E|---------------------------------------------------------------------------|

e|---------------------------------------------------------------------------|
B|-7/8---8-x-x-x-x-x-x-8-x--9--x-x-x-x-x-x-9--9------------------------------|
G|-7/8---8-x-x-x-x-x-x-8-x--10-x-x-x-x-x-x-8--8------------------------------|
D|-5/6---6-x-x-x-x-x-x-6-x--8--x-x-x-x-x-x-8--8------------------------------| 
A|-7/8---8-x-x-x-x-x-x-8-x--8--x-x-x-x-x-x-----------------------------------|
E|-----------------------------------------9--8------------------------------|

e|---------------------------------------------------------------------------|
B|-7/8---8-x-x-x-x-x-x-8-x--9--------------9---9-----------------------------|
G|-7/8---8-x-x-x-x-x-x-8-x--10-------------10--10----------------------------|
D|-5/6---6-x-x-x-x-x-x-6-x--8--------------8---8-----------------------------|
A|-7/8---8-x-x-x-x-x-x-8-x--8--------------8---8-----------------------------|
E|---------------------------------------------------------------------------|

************************************

| x   Dead note
| g   Grace note
| (n) Ghost note
| h   Hammer-on
| p   Pull-off
| r   Release
| >   Accented note
| t   Tapping
| b   Bend
| br  Bend release
| pb  Pre-bend
| pbr Pre-bend release
| /   Slide up
| \   Slide down
| ~   Vibrato
| s   Slap
| P   Pop
| PM  Palm mute
| TR  Trill
| N   Tremolo

************************************
Suggest correction
comments
print report bad tab
guest
You may want to rate the tab now too:
select rating
Wanna post a correction for this tab? Suggest correction