Oops, an error
Loading. Please wait.
We have Chord Pro version of 24K Magic.
It's the closest thing you can get to the original song and it has interactive parts. Check out the tab »
×

24K Magic tab

version 2
version 2

Whole song

  • This tab of 24K Magic by Bruno Mars follows the ja... Show more
  • Fingerstyle arrangement by Andrew Foy.

Interactive

Video

1,852 views 36 this week
no commentswrite comment
1 2 3 4 5
x 3
add to favorites
×
Save as Personal and add changes to this tab that will be seen only by you. Learn more ›
×
You can save this tab as Personal to edit and correct it or add notes. All changes will be seen only by you. Learn more »
launch autoscroll
font size
0
reset
how to read this tab
guitar tuner
edit
Autoscroll
slow
fast
+/-
esc
set tempo
stop
Author
Difficulty
About this tab version
This tab of 24K Magic by Bruno Mars follows the jazzy chords provided by the guitar and synth parts throughout the full song. Even though there may be no guitar in certain parts such as the intro, the chords formed by the vocals/synths are also tabbed out here. Was this info helpful? Yes No
This tab of 24K Magic by Bruno Mars follows the jazzy chords provided by the guitar and synth parts 
throughout the full song. Even though there may be no guitar in certain parts such as the intro, 
the chords formed by the vocals/synths are also tabbed out here.

If you would like to follow a tutorial for this tab, copy and paste this link into your browser: 

https://www.youtube.com/watch?v=lpbPVE282z0 

Enjoy!

[Intro]
(0:00)
"Tonight I just wanna take you higher"
  Eb6/9                            Cm7                     Ebm7b5   C#6/9
  1 e + a 2 e + a 3 e + a 4 e + a  1 e + a 2 e + a 3 e + a 4 e + a  1 e + a 2 e + a 3 e + a 4 e + a
e|6~------------------------------|3~----------------------x-------|4~------------------------------|
b|6~------------------------------|4~----------------------7~------|4~------------------------------|
G|5~------------------------------|3~----------------------6~------|3~------------------------------|
D|5~------------------------------|5~----------------------7~------|3~------------------------------|
A|6~------------------------------|3~----------------------6~------|4~------------------------------|
E|x-------------------------------|x-----------------------x-------|x-------------------------------|

  Fm7b5           C7               Eb                               G#maj7/C
  1 e + a 2 e + a 3 e + a 4 e + a  1 e + a 2 e + a 3 e + a 4 e + a  1 e + a 2 e + a 3 e + a 4 e + a
e|x---------------3~--------------|x-------------------------------|8~------------------------------|
b|9~--------------5~--------------|8~------------------------------|9~------------------------------|
G|8~--------------3~--------------|8~------------------------------|8~------------------------------|
D|9~--------------5~--------------|8~------------------------------|10~-----------------------------|
A|8~--------------3~--------------|6~------------------------------|10~-----------------------------|
E|x---------------x---------------|x-------------------------------|8~------------------------------|

  Fm                               Fmadd4          E(b5)/G
  1 e + a 2 e + a 3 e + a 4 e + a  1 e + a 2 e + a 3 e + a 4 e + a  1 e + a 2 e + a 3 e + a 4 e + a
e|8~------------------------------|8~--------------x---------------|--------------------------------|
b|9~------------------------------|9~--------------9~--------------|--------------------------------|
G|10~-----------------------------|10~-------------9~--------------|--------------------------------|
D|10~-----------------------------|8~--------------8~--------------|--------------------------------|
A|8~------------------------------|8~--------------11~-------------|--------------------------------|
E|x-------------------------------|x---------------x---------------|--------------------------------|

[Chorus/Verse]
(0:26 repeats twice, 1:20 repeats twice, 2:14 play through once and then play verse 3 variation,
3:07 repeats twice):

"Put your pinky rings up to the moon"

  F7sus4                           Bbm7                             
  1 e + a 2 e + a 3 e + a 4 e + a  1 e + a 2 e + a 3 e + a 4 e + a  
e|8-----8-----------------8-------|6-----6-------------------------|
b|11----11----------------11------|9-----9-------------------------|
G|8-----8-----------------8-------|6-----6-------------------------|     X2
D|10----10----------------10------|6-----6-------------------------|
A|8-----8-----------------8-------|8-----8-------------------------|
E|x-----x-----------------x-------|6-----6-------------------------|


  F7sus4                           Bbm7            Bbm9    E(b5)             
  1 e + a 2 e + a 3 e + a 4 e + a  1 e + a 2 e + a 3 e + a 4 e + a  
e|8-----8-----------------8-------|6-----6---------8-------x-------|
b|11----11----------------11------|9-----9---------6-------9-------|
G|8-----8-----------------8-------|6-----6---------6-------9-------|
D|10----10----------------10------|6-----6---------6-------8-------|
A|8-----8-----------------8-------|8-----8---------8-------7-------|
E|x-----x-----------------x-------|6-----6---------6-------x-------|


  F7sus4                           F7sus4                             
  1 e + a 2 e + a 3 e + a 4 e + a  1 e + a 2 e + a 3 e + a 4 e + a  
e|8-----8-------------------------|8---------------8-------8-------|
b|11----11------------------------|11--------------11------11------|
G|8-----8-------------------------|8---------------8-------8-------|
D|10----10------------------------|10--------------10------10------|
A|8-----8-------------------------|8---------------8-------8-------|
E|x-----x-------------------------|x---------------x-------x-------|

[Prechorus]
(1:01, 1:56):
"I'm a dangerous man, put some money in my pocket keep up"

  C#maj9        F7sus4                                            
  1 e + a 2 e + a 3 e + a 4 e + a  1 e + a 2 e + a 3 e + a 4 e + a  
e|8-------------8~----------------|--------------------------------|
b|9-------------11~---------------|--------------------------------|
G|8-------------8~----------------|--------------------------------|     X3
D|10------------10~---------------|--------------------------------|
A|x-------------8~----------------|--------------------------------|
E|9-------------x-----------------|--------------------------------|

  C#maj9        F7sus4             Bbm7    Cm7     C#      Eb                
  1 e + a 2 e + a 3 e + a 4 e + a  1 e + a 2 e + a 3 e + a 4 e + a  
e|8-------------8~----------------|6-------8-------9-------11------|
b|9-------------11~---------------|6-------8-------9-------11------|
G|8-------------8~----------------|6-------8-------10------12------|     
D|10------------10~---------------|6-------8-------11------13------|
A|x-------------8~----------------|8-------10------11------13------|
E|9-------------x-----------------|6-------8-------9-------11------|

[Verse 3 Variation]
(2:31):

"Everywhere I go they be like oo so glad"

  1 e + a 2 e + a 3 e + a 4 e + a  1 e + a 2 e + a 3 e + a 4 e + a  
e|13/-----------------------------|--------------------------------|
b|13/-----------------------------|--------------------------------|
G|--------------------------------|--------------------------------|
D|--------------------------------|--------------6---6-------------|
A|--------------------------------|----------6-8-------8-----------|
E|--------------------------------|--------------------------------|

  1 e + a 2 e + a 3 e + a 4 e + a  1 e + a 2 e + a 3 e + a 4 e + a  
e|13/-----------------------------|--------------------------------|
b|13/-----------------------------|--------------------------------|
G|--------------------------------|--------------------------------|
D|--------------------------------|--------------8---6-------------|
A|--------------------------------|----------6-8-------8-----------|
E|--------------------------------|--------------------------------|

  1 e + a 2 e + a 3 e + a 4 e + a  1 e + a 2 e + a 3 e + a 4 e + a  
e|13/-----------------------------|--------------------------------|
b|13/-----------------------------|--------------------------------|
G|--------------------------------|--------------------------------|
D|--------------------------------|--------------------------------|
A|--------------------------------|--------------------------------|
E|--------------------------------|--------------------------------|

                                   F7sus4
  1 e + a 2 e + a 3 e + a 4 e + a  1 e + a 2 e + a 3 e + a 4 e + a  
e|--------------------------------|8---------------8-------8-------|
b|--------------------------------|11--------------11------11------|
G|--------------------------------|8---------------8-------8-------|
D|--------------------------------|10--------------10------11------|
A|--------------------------------|8---------------8-------8-------|
E|--------------------------------|--------------------------------|

[Bridge]
(2:49):
"Now watch me break it down like"

Alternating between 3/4 timing and 5/4 timing

                  Eb       Bbm7(high C#)
  1 e + a 2 e + a 3 e + a  1 e + a 2 e + a 3 e + a 4 e + a 5 e + a 
e|----------------11------|9~--------------------------------------|
b|----------------11------|6~--------------------------------------|
G|----------------12------|6~--------------------------------------|     x2
D|----------------13------|6~--------------------------------------|
A|----------------13------|8~--------------------------------------|
E|----------------11------|6~--------------------------------------|

                  Eb       Bbm9
  1 e + a 2 e + a 3 e + a  1 e + a 2 e + a 3 e + a 4 e + a 5 e + a 
e|----------------11------|8~--------------------------------------|
b|----------------11------|6~--------------------------------------|
G|----------------12------|6~--------------------------------------|     x2
D|----------------13------|6~--------------------------------------|
A|----------------13------|8~--------------------------------------|
E|----------------11------|6~--------------------------------------|

Back to 4/4

  C#maj7          Bb7/G#           Bbm7    Cm7     C#      Eb                
  1 e + a 2 e + a 3 e + a 4 e + a  1 e + a 2 e + a 3 e + a 4 e + a  
e|8~--------------10~-------------|6-------8-------9-------11------|
b|9~--------------11~-------------|6-------8-------9-------11------|
G|8~--------------10~-------------|6-------8-------10------12------|     
D|10~-------------12~-------------|6-------8-------11------13------|
A|x---------------11~-------------|8-------10------11------13------|
E|9~------------------------------|6-------8-------9-------11------|



************************************

| x  Dead note
| ~  Vibrato
| /  Slide up

************************************

            
            
Suggest correction
Creating personal tab
Creating personal tab
You can edit any tab online and save it as your Personal.

You can edit, replace or remove any tab part or add personal notes – all changes will be seen only by you.

Personal tabs can be accessed anytime from any device, even offline.
Learn more »
Give kudos to tab author, rate the tab!
1 2 3 4 5
comments
print report bad tab
guest
You may want to rate the tab now too:
select rating
Wanna post a correction for this tab? Suggest correction