Oops, an error
Loading. Please wait.
We have Chord Pro version of 24K Magic.
It's the closest thing you can get to the original song and it has interactive parts. Check out the tab »
×

24K Magic tab

version 3
version 3

Whole song

  • This tab of 24K Magic by Bruno Mars follows the ja... Show more
  • Fingerstyle arrangement by Andrew Foy.

Interactive

Video

481 views 9 this week
no commentswrite comment
1 2 3 4 5
1 last vote to show rating
add to favorites
×
Save as Personal and add changes to this tab that will be seen only by you. Learn more ›
×
You can save this tab as Personal to edit and correct it or add notes. All changes will be seen only by you. Learn more »
launch autoscroll
font size
0
reset
how to read this tab
guitar tuner
edit
Autoscroll
slow
fast
+/-
esc
set tempo
stop
About this tab version
Fingerstyle arrangement by Andrew Foy. Was this info helpful? Yes No
https://www.youtube.com/watch?v=ccb4bAw5gkQ
[Intro]

e|-----------------------------------0-3/5-5/7--7------------------------------10-10--|
B|-0-3/5--3-3/5\3p0------------0h3-3------------0-8-8/10-----8-8h10p8---8h10---8------|
G|---0---------------2p0--0h2------0------------0---------------------0------0-8------|
D|---0--------------------0--------0-------------------------------------------0------|
A|------------------------------------------------------------------------------------|
E|---0--------------------3---------------------8---------8---------------------------|

e|-8-7-5-5-5h7-3-----8-7-3-------------------------------------0----------------------|
B|-8-----0-----0-----0-----3-1-0--0-------------------------0--0--3-------------------|
G|-5-----0-----0-----0------------0----0-2-2/4\2p0----0h2---0--0----------------------|
D|----------------0---------------0h2--------------0--0-----1--1----------------------|
A|--------------------------------3-------------------------2--2----------------------|
E|-------0-----------3--------------------------------2-------------------------------|


[Chorus]

     o   o   o   o
e|------------------------------------------------------------------------------------|
B|--3p0-3p0-3p0-3p0---5/7---7-----------8h10------8h10\---5-5---8--5--------5/7--7----|
G|--------------------5/7---7-------7h9------7h9----------5-5---5-----5-----5/7--7----|
D|--------------------3/5---5-----------------------------5-5---5--------5--3/5--5----|
A|---0---2---3---5-------------x------------------x-------0-0-x-0-----x-------------x-|
E|--------------------0-----0--x-0----------------x-----------x-------x-----0----0--x-|

e|------------------------------------------------------------------------------------|
B|-----8h10------8h10------------------------------5--5h7--(7)------------7\-----3/5--|
G|-7h9------7h9---------5/7-7-7--7---5/7-7-7-----7----5h7--(7)---------7--7\-----3/5--|
D|----------------------3/5-----(5)--3/5-5-5-----5-------------------5----------------|
A|---------------x------0--------x---0--------0--x----------x-------------x---x-------|
E|-0-------------x---------------x---------------x-----0----x----0--------x---x-------|

   o
e|----------7-7--------5--5------5-------5--5-----------------------------------------|
B|----5-----5---8---8-----5------5-------5--5---------7-------------------------------|
G|----5-----5-----------------------------------------7-------------------------------|
D|------------------------------------------------------------------------------------|
A|-0-----x--0-----x-----------x--x----7--------x--x------13\--------------------------|
E|-------x--------x----0------x--x--0----------x--x---0-------------------------------|

[Verse]

e|------------------------------------------------------------------------------------|
B|-7-7-7-7-5/7-7--------------7-7--------------5-5----5-----5-8-(8)-8---8/11----7-7---|
G|-7-7-7-7-5/7-7----7/11-11\--7-7----7/11-11\--5-5----5-----5-5-(5)-5-----------7-7---|
D|----------------------------5-5-----------------------------------------------------|
A|-----x------------x----------------x---------0---0--x--0-------x------x-----x-------|
E|-0---x---0-----0--x---------0---0--x----------------x----------x------x-----x-0---0-|

e|-------------------------------------------------------(5)--------------------------|
B|-----------7--7---------------5-5---5----5-(5)-(5)-(5)-(5)---7-7-7-7----7-7-7-7-7---|
G|-7/11-11\--7--7----7/11-11\---5-5---5----5-(5)-(5)-(5)-(5)---7------------7---------|
D|-----------5--5-----------------------------------------------------------5---------|
A|-x-----------------x----------0---0-x-0---------x-------x--x---------x------------x-|
E|-x---------0-----0-x----------------x-----------x-------x--x-0-------x----0-------x-|

e|----------------------------------(5)-----------------------------------------------|
B|-7--5-5----5----5-(5)-(5)-(5)-(5)-(5)---7-7--------------7-7--------------5-5----5--|
G|----5-5----5----5-(5)-(5)-(5)-(5)-(5)---7-7----7/11-11\--7-7----7/11-11\--5-5----5--|
D|----5----------------------------------------------------5-5------------------------|
A|----0---0--x-0---------x-----------x--x--------x----------------x---------0---0--x--|
E|-----------x-----------x-----------x--x-0---0--x---------0---0--x----------------x--|

e|------------------(5)---------------------------------------------------------------|
B|----5-(5)-(5)-(5)-(5)---------------------------------------------------------------|
G|----5-(5)-(5)-(5)-(5)---------------------------------------------------------------|
D|------------------------------------------------------------------------------------|
A|-0---------x-------x--x-------------------------------------------------------------|
E|-----------x-------x--x-------------------------------------------------------------|

[Prechorus]

e|----------------------------0-3----3/5-3p0----------------------------------------0-|
B|--0h1---------0---------0h3----------------3p0------------0h1--------0--------0h3---|
G|--0----(0)----0----0----0-----------------------0--0h2p0--0----------0----0---0-----|
D|--2----(2)-----------2--2----------------------(0)------------(2)-----------2-2-----|
A|--3--------x-------x-------------x--------------x---------3-------x-------x---------|
E|-----------x--0-0--x----0--------x-0------------x-----------------x--0-0--x---0-----|

e|-0-----3/5-5-5-5-3p0---------------------3-3-----3-3---3-3---3-3-3------------------|
B|-3---0---------------3p0--0h1-----0-----------0------------0-----0---0h1---0----0---|
G|-----0--------------------0-------0----------------------------------0-----0----0---|
D|--------------------------2------------------------------------------0h2------------|
A|---x-------------x--------3----x------x--------------x-----------x-x-0h3-x------x-x-|
E|---x-0-----------x-------------x--0-0-x-------0------x-0---------x-x-----x-0-0--x-x-|

[Chorus]

     o   o   o   o
e|------------------------------------------------------------------------------------|
B|--3p0-3p0-3p0-3p0---5/7---7-----------8h10------8h10\---5-5---8--5--------5/7--7----|
G|--------------------5/7---7-------7h9------7h9----------5-5---5-----5-----5/7--7----|
D|--------------------3/5---5-----------------------------5-5---5--------5--3/5--5----|
A|---0---2---3---5-------------x------------------x-------0-0-x-0-----x-------------x-|
E|--------------------0-----0--x-0----------------x-----------x-------x-----0----0--x-|

e|------------------------------------------------------------------------------------|
B|-----8h10------8h10------------------------------5--5h7--(7)------------7\-----3/5--|
G|-7h9------7h9---------5/7-7-7--7---5/7-7-7-----7----5h7--(7)---------7--7\-----3/5--|
D|----------------------3/5-----(5)--3/5-5-5-----5-------------------5----------------|
A|---------------x------0--------x---0--------0--x----------x-------------x---x-------|
E|-0-------------x---------------x---------------x-----0----x----0--------x---x-------|

   o
e|----------7-7--------5--5------5-------5--5-----------------------------------------|
B|----5-----5---8---8-----5------5-------5--5---------7-------------------------------|
G|----5-----5-----------------------------------------7-------------------------------|
D|------------------------------------------------------------------------------------|
A|-0-----x--0-----x-----------x--x----7--------x--x------13\--------------------------|
E|-------x--------x----0------x--x--0----------x--x---0-------------------------------|

[Verse]

e|------------------------------------------------------------------------------------|
B|--7-7-7-7-7-5/7-7--------------7-7--------------5-5----5----5-8-(8)-8---8/11---7-7--|
G|------------5/7-7----7/11-11\--7-7----7/11-11\--5-5----5----5-5-(5)-5----------7-7--|
D|-------------------------------5-5--------------------------------------------------|
A|------x--------------x----------------x---------0---0--x--0------x------x----x------|
E|-0----x-----0-----0--x---------0---0--x----------------x---------x------x----x-0---0|

e|------------------------------------------------------------------------------------|
B|-----------7--7---------------8-5-5-8-5-5-5h8--(8)-7---7----7-7----7----5-5----5----|
G|-7/11-11\--7--7----7/11-11\---5-5-5-5----------(5)----------------------5-5----5----|
D|-----------5--5--------------------------------------5-----------5------------------|
A|-x-----------------x----------0-----x-0---------x---------x-----------x-0----0-x-0--|
E|-x---------0-----0-x----------------x-----------x--0------x---0-------x--------x----|

         o
e|-----------(8)--7-7/10--------------------------------------------------------------|
B|-5-(5)-----(5)-------------7--7-7----7--7-------5/7-5/7------7--7-------------------|
G|-5-(5)-----(5)----------------7-7----7-----7------------7----7--7-------------------|
D|---------------------------------------------5------------5--5--5-------------------|
A|------------x-----------x------------x-----------------------x-----x----------------|
E|------------x-----------x-----0----0-x-----0-----------------x-----x----------------|

[Prechorus]

e|----------------------------0-3----3/5-3p0----------------------------------------0-|
B|--0h1---------0---------0h3----------------3p0------------0h1--------0--------0h3---|
G|--0----(0)----0----0----0-----------------------0--0h2p0--0----------0----0---0-----|
D|--2----(2)-----------2--2----------------------(0)------------(2)-----------2-2-----|
A|--3--------x-------x-------------x--------------x---------3-------x-------x---------|
E|-----------x--0-0--x----0--------x-0------------x-----------------x--0-0--x---0-----|

e|-0-----3/5-5-5-5-3p0---------------------3-3-----3-3---3-3---3-3-3------------------|
B|-3---0---------------3p0--0h1-----0-----------0------------0-----0---0h1---0----0---|
G|-----0--------------------0-------0----------------------------------0-----0----0---|
D|--------------------------2------------------------------------------0h2------------|
A|---x-------------x--------3----x------x--------------x-----------x-x-0h3-x------x-x-|
E|---x-0-----------x-------------x--0-0-x-------0------x-0---------x-x-----x-0-0--x-x-|

[Chorus]

     o   o   o   o
e|------------------------------------------------------------------------------------|
B|--3p0-3p0-3p0-3p0---5/7---7-----------8h10------8h10\---5-5---8--5--------5/7--7----|
G|--------------------5/7---7-------7h9------7h9----------5-5---5-----5-----5/7--7----|
D|--------------------3/5---5-----------------------------5-5---5--------5--3/5--5----|
A|---0---2---3---5-------------x------------------x-------0-0-x-0-----x-------------x-|
E|--------------------0-----0--x-0----------------x-----------x-------x-----0----0--x-|

e|------------------------------------------------------------------------------------|
B|-----8h10------8h10------------------------------5--5h7--(7)------------7\-----3/5--|
G|-7h9------7h9---------5/7-7-7--7---5/7-7-7-----7----5h7--(7)---------7--7\-----3/5--|
D|----------------------3/5-----(5)--3/5-5-5-----5-------------------5----------------|
A|---------------x------0--------x---0--------0--x----------x-------------x---x-------|
E|-0-------------x---------------x---------------x-----0----x----0--------x---x-------|

   o
e|----------7-7--------5--5------5-------5--5-----------------------------------------|
B|----5-----5---8---8-----5------5-------5--5---------7-------------------------------|
G|----5-----5-----------------------------------------7-------------------------------|
D|------------------------------------------------------------------------------------|
A|-0-----x--0-----x-----------x--x----7--------x--x------13\--------------------------|
E|-------x--------x----0------x--x--0----------x--x---0-------------------------------|

[Bridge]

e|---------0--------------------------------------------0-----------------------------|
B|-7-7-----0------------------------0-------------------0------------------------3----|
G|-7-7-----0--------------------------------0--0h2------0-----------------------------|
D|-------------------------------------0h2--------------------------------------------|
A|------------x-----------x------------3-------x------------x------------x----------x-|
E|-0-0--0-----x-0-0h3-3/7-x--3-3h5-------------x-----0------x--0-0h3-3/7-x-3-3h5----x-|

e|-----------------0------------------------------------------------------------------|
B|-0----0----------0-----------------------3-----0----0---------3/5---3/7---3/8---3/9-|
G|---0-------2-----0-------------------------------0--0-----2-------------------------|
D|---------0------------------------------------------0-------------------------------|
A|---3--x-------------x-----------x-----------x----3--x--x----------x-----x-----x-----|
E|------x-------0-----x-0-0h3-3/7-x-3-3h5-----x-------x--x----0-----x-----x-----x-----|

e|-----------------------------0------------------0--(0)---------------------0--------|
B|-3-3-0-0----------3-3--3---3-------3-3-3-3-3-3-----(3)---------3-3--3---3--------3--|
G|---------0-------------------------0---------------(0)---------------------------0--|
D|---------2-2p0---------------------0---------------(0)---------------------------0--|
A|-x-------------3-----------3----0--------0---0------x----x--3------0h3--2-----0-----|
E|-x--------------------0h3------------------3--------x----x--------------------------|

e|-------------0--(0)------------------0------------------0--(0)----------------------|
B|-3-3-3--3--3----(3)-------3-3--3---3-------3-3-3-3-3-3-----(3)----1-----------------|
G|----------------(0)------------------------0---------------(0)--------0-0-0---0-0---|
D|----------------(0)------------------------0---------------(0)------2-------2-------|
A|-----0-----0-----x--x--3-----------3----0--------0---0------x--x--3-----------------|
E|--------3--------x--x---------0h3------------------3--------x--x----------0---------|

[Chorus]

     o   o   o   o
e|-------------------------------7/10--8--7-------------------------------------------|
B|--3p0-3p0-3p0-3p0---5/7---7----------7------10-----8--------8----5--------5/7--7----|
G|--------------------5/7---7----------7-------------7--------5-------5-----5/7--7----|
D|--------------------3/5---5---------------------------------5----------5--3/5--5----|
A|---0---2---3---5-------------x----------x-------0----x------0-------x-------------x-|
E|--------------------0-----0--x-0--------x------------x--------------x-----0----0--x-|

e|------------------------------------------------------------------------------------|
B|-----8h10------8h10------------------------------5--5h7--(7)------------7\-----3/5--|
G|-7h9------7h9---------5/7-7-7--7---5/7-7-7-----7----5h7--(7)---------7--7\-----3/5--|
D|----------------------3/5-----(5)--3/5-5-5-----5-------------------5----------------|
A|---------------x------0--------x---0--------0--x----------x-------------x---x-------|
E|-0-------------x---------------x---------------x-----0----x----0--------x---x-------|

   o
e|----------7-7--------5--5------5-------5--5------------------------------0----------|
B|----5-----5---8---8-----5------5-------5--5------------------------------0-----0----|
G|----5-----5--------------------------------------------------------------0-----0----|
D|-------------------------------------------------------------------------0-----0----|
A|-0-----x--0-----x-----------x--x----7--------x--x---x----x----x----x-----0h2------x-|
E|-------x--------x----0------x--x--0----------x--x--3h5--2h3--1h2--0h1----0--------x-|

e|--7/10--8---7-----------------------------------------------------------------------|
B|--------7-------10------8----8--5--------5/7--7-------------------------------------|
G|--------7---------------7----5-----5-----5/7--7-------------------------------------|
D|-----------------------------5--------5--3/5--5-------------------------------------|
A|------------x-------0---x----0-----x-------------x----------------------------------|
E|------------x-----------x----------x-----0----0--x---------------------------------|

e|------------------------------------------------------------------------------------|
B|-----8h10------8h10------------------------------5--5h7--(7)------------7\-----3/5--|
G|-7h9------7h9---------5/7-7-7--7---5/7-7-7-----7----5h7--(7)---------7--7\-----3/5--|
D|----------------------3/5-----(5)--3/5-5-5-----5-------------------5----------------|
A|---------------x------0--------x---0--------0--x----------x-------------x---x-------|
E|-0-------------x---------------x---------------x-----0----x----0--------x---x-------|

   o
e|----------7-7--------5--5------5-------5--5-----------------------------------------|
B|----5-----5---8---8-----5------5-------5--5---------7-------7--7--------------------|
G|----5-----5-----------------------------------------7-------7--7--------------------|
D|------------------------------------------------------------5--5--------------------|
A|-0-----x--0-----x-----------x--x----7--------x--x------13\--------------------------|
E|-------x--------x----0------x--x--0----------x--x---0-------0--0--------------------|

************************************

| x   Dead note
|(n)  Ghost note
| h   Hammer-on
| p   Pull-off
| /   Slide up
| \   Slide down
| o   Wrist thump

************************************

            
            
Suggest correction
Creating personal tab
Creating personal tab
You can edit any tab online and save it as your Personal.

You can edit, replace or remove any tab part or add personal notes – all changes will be seen only by you.

Personal tabs can be accessed anytime from any device, even offline.
Learn more »
Give kudos to tab author, rate the tab!
1 2 3 4 5
comments
print report bad tab
guest
You may want to rate the tab now too:
select rating
Wanna post a correction for this tab? Suggest correction