Oops, an error
Loading. Please wait.
We have Chord Pro version of Billionaire.
It's the closest thing you can get to the original song and it has interactive parts. Check out the tab »
×
15,305 views 12 this week
no commentswrite comment
1 2 3 4 5
2 more votes to show rating
add to favorites
launch autoscroll
font size
0
reset
how to read this tab
guitar tuner
Autoscroll
slow
fast
+/-
esc
set tempo
stop
Chords to use:
A    C#m7  F#m    E   D     B     Bm    G

Before you start you can see the spaces like this "-" between the numbers so I 
recommend you to slap the strings as Bruno Mars slap the guitar

Do this in verse 1
     A             C#m7               F#m            E
e|------------|---------------|----------------|-----------| 
B|---5-5-5-5--|---9--9--9--9--|---10-10-10-10--|---9-9-9-9-|  
G|---6-6-6-6--|---10-10-10-10-|---11-11-11-11--|---9-9-9-9-|  
D|------------|---------------|---11-11----11--|---9-9---9-|  
A|---7-7---7--|---11-11----11-|--9------9------|--7----7---|  
E|--5----5----|--9------9-----|----------------|-----------|

[Verse 1]
A                        C#m7                      
I wanna be a billionaire so frickin bad
 F#m                          E
Buy all of the things I never had
A                          C#m7
I wanna be on the cover of Forbes Magazine
 F#m                      E
Smiling next to Oprah and the Queen

Chorus:
      D         E           F#m 
e|---------|---------|----------------|
B|---7-7---|---9-9---|---10-10-10-10--|
G|---7-7---|---9-9---|---11-11-11-11--| 
D|---7-7---|---9-9---|---11-11----11--|  
A|--5------|--7------|--9------9------|  
E|---------|---------|----------------|


[Chorus 1]
   D              E       F#m      
Oh every time I close my eyes
   D              E       F#m  
I see my name in shining lights, yeaaah
   D              E       
A different city every


[note here: no slapping A to E] just slap again in D and B

          A                F#m           E          D
    v  v  ^  v  v  ^      v  v  ^      v v ^  
e|---------------------|------------|---------|------------| 
B|---------------------|------------|---------|---7-7-9-9--|  
G|---------------------|------------|---------|---7-7-9-9--|  
D|--13-13-13-13-13-13--|--11-11-11--|--9-9-9--|---7-7---9--|  
A|--12-12-12-11-11-11--|--9--9--9---|--7-7-7--|-5-----5----|  
E|---------------------|------------|---------|------------|
        night             oh         I           swear
 
       B
e|----------|
B|--7-7-7-7-|
G|--8-8-8-8-|
D|----------|
A|--9-9-9-9-|
E|-7----7---|
The world better prepare for when I’m a billionaire

[Travie McCoy]
       A
Yeah I would have a show like Oprah
I would be the host of
   C#m7
Everyday Christmas give Travie a wish list
      F#m
I’d probably pull an Angelina and Brad Pitt
                  E
and adopt a bunch of babies that ain’t never had sh!t
      A
Give away a few Mercedes like here lady have this
        C#m7
And last but not least grant somebody their last wish
     F#m
It’s been a couple months since I’ve single so
                    E
You can call me Travie Claus minus the ho-ho
    A
Get it, I’d probably visit where Katrina hit
     C#m7
And damn sure do a lot more than FEMA did
        F#m
Yeah can’t forget about me stupid
                 E
Everywhere I go Imma have my own theme music



[do the Chorus 1]
Bruno Mars 
  D           E          F#m
Oh every time I close my eyes
  D           E          F#m
I see my name in shining lights
 D           E          
A different city every 

         A                F#m           E          D
    v  v  ^  v  v  ^      v  v  ^      v v ^  
e|---------------------|------------|---------|------------| 
B|---------------------|------------|---------|---7-7-9-9--|  
G|---------------------|------------|---------|---7-7-9-9--|  
D|--13-13-13-13-13-13--|--11-11-11--|--9-9-9--|---7-7---9--|  
A|--12-12-12-11-11-11--|--9--9--9---|--7-7-7--|-5-----5----|  
E|---------------------|------------|---------|------------|
        
              night        oh          I         swear

       

      B
e|----------|
B|--7-7-7-7-|
G|--8-8-8-8-|
D|----------|
A|--9-9---9-|
E|-7----7---|           
The world better prepare for when I’m a billionaire

      G        A       Bm
e|--------|--------|------------|
B|---3-3--|---5-5--|---7-7-7-7--|
G|---4-4--|---6-6--|---7-7-7-7--|
D|--------|--------|------------|
A|---5-5--|---7-7--|---9-9---9--|
E|--3-----|--5-----|--7----7----|
 G  A     Bm   
(oooh ooh) when I’m a Billionaire
 G  A     Bm
(oooh ooooh)




[Travie McCoy]
     A[1 strum down]
I’ll be playing basketball with the President
Dunking on his delegates

    C#m7[1 strum down]
Senator … his political etiquette
     F#m 
Toss a couple milli in the air just for the heck of it
    E
But keep the fives, twenty’s …completely separate
  A
And yeah I’ll be in a whole new tax bracket
  C#m7
We in recession but let me take a crack at it
  F#m
I’ll probably take whatever left and just split it up
  E
So everybody that I love can have a couple bucks
  A
And not a single tummy around me
  C#m7
Would know what hungry was
  F#m
Eating good sleeping soundly
I know we all have a similar dream
  E
Go in your pocket pull out your wallet
And put it in the air and sing



[Bruno Mars]
  A                             C#m7                                  
I wanna be a billionaire so frickin bad (so bad)
   F#m                      E
Buy all of the things I never had
 A                             C#m7
I wanna be on the cover of Forbes Magazine
   F#m                       E
Smiling next to Oprah and the Queen


  D        E          F#m
Oh every time I close my eyes
 D        E          F#m
I see my name in shining lights
 D             E
A different city every 
        A                F#m           E          D
    v  v  ^  v  v  ^      v  v  ^      v v ^  
e|---------------------|------------|---------|------------| 
B|---------------------|------------|---------|---7-7-9-9--|  
G|---------------------|------------|---------|---7-7-9-9--|  
D|--13-13-13-13-13-13--|--11-11-11--|--9-9-9--|---7-7---9--|  
A|--12-12-12-11-11-11--|--9--9--9---|--7-7-7--|-5-----5----|  
E|---------------------|------------|---------|------------|
              night         oh        I          swear

              B
The world better prepare for when I’m a billionaire
 G   A   Bm
(oooh ooh sing it) when I’m a Billionaire
 G  A  Bm
(oooh ooooh)

  A
I wanna be a billionaire so frickin bad
Suggest correction
Give kudos to tab author, rate the tab!
1 2 3 4 5
comments
print report bad tab
guest
You may want to rate the tab now too:
select rating
Wanna post a correction for this tab? Suggest correction