Oops, an error
Loading. Please wait.

Gorilla Bass Tab

4,222 views 12 this week
no commentswrite comment
1 2 3 4 5
excellent!
x 3
add to favorites
launch autoscroll
font size
0
reset
guitar tuner
Autoscroll
slow
fast
+/-
esc
set tempo
stop
Help us to improve Ultimate-Guitar.com Take our survey!
×
Author
Difficulty
novice
Hey y'all, this is a really fun song that I've really been into lately so I thought Id 
tab it out. You can really mess around with it and add cool fills and make it your own. 
Listen for the timings.


Verse

G|---------------------------------------------------------------------------|
D|---------------------------------------------------------------------------|
A|--------------------------------------------------111--333-----------------|
E|-7-7-7-7-7-7-7-7-5-5-5-5-5-5-5-5-3-3-3-3-3-3-3-3---------------------------|


G|---------------------------------------------------------------------------|
D|---------------------------------------------------------------------------|
A|-------------------------5-5-5-5------------------111--333-----------------|
E|-7-7-7-7-7-7-7-7-5-5-5-5---------3-3-3-3-3-3-3-3---------------------------|

Prechorus

G|---------------------------------------------------------------------------|
D|---------------------------------------------------------------------------|
A|-----------------2-2-2-2-2-2-2-2-------------------------------------------|
E|-2-2-2-2-2-2-2-2-----------------0-0-0-0-0-0-0-0--3--3--3--3---5--55-------|


Chorus

G|---------------------------------------------------------------------------|
D|---------------------------3------05---------------------------------------|
A|--/5--5--5-7-9-5-3--3--3-5----------5--------11-33-------------------------|
E|------------------------------3-3----3--3--3-------------------------------|


G|---------------------------------------------------------------------------|
D|----------------------------3/0----05----------5---------------------------|
A|--/5--5--5-7-7/9-5-3--3--3-5---------5--------0-11-33----------------------|
E|-------------------------------3-3----3--3--3------------------------------|

Verse Again

Pre-chorus. You can either choose to play the same line as the previous  pre-chorus or 
you can play this one which is the electronic bass. Timing is weird so listen for it.


G|---------------------------------------------------------------------------|
D|--------------------2/4-2--------------------------------------------------|
A|-------2~-------2-5-------2-------2/7-7-7----------------------------------|
E|-2~------------------------0~--------------3-3-3-3--5--55------------------|

Chorus Again

Bridge


G|---------------------------------------------------------------------------|
D|---------------------------------------------------------------------------|
A|---2222----20-2--2-2-0-0--025----2222--2020-2-2-22-0-000-------------------|
E|-------------2-----------------------------2-------------3-3-3-3--5--------|

Chorus x3

These choruses are really emotional and the slides are really obvious. The slide goes 
A|--5/7/9/7/5-3--| during one of the choruses and it is just picked out on the other as  
A|--5-7-9-7-5-3--| Listen to the song to hear it. End on a D note after the jungle 
noises. (A|--5--|)

Have fun!
Suggest correction
What's this?
You can suggest a correction to this tab. Community and Mods will review your correction and vote to approve or reject it.
comments
We did not receive enough feedback on this tab! Please rate:
print report bad tab
1 2 3 4 5
guest
You may want to rate the tab now too:
select rating
Please do not post tabs as comments. Select "correction" instead!