Oops, an error
Loading. Please wait.

Grenade Tab

version 1
version 1
123,957 views 9 this week
5 commentsread comments
1 2 3 4 5
worth learning
x 20
add to favorites
launch autoscroll
font size
0
reset
how to read this tab
guitar tuner
Tab Pro tools
  • play this tab
  • loop segment
  • change instrument
  • show fretboard
  • metronome
×
Best way to learn
"Grenade"
Autoscroll
slow
fast
+/-
esc
set tempo
stop
Contributor
Difficulty
novice
Hey plz dont blame me this is my first tab.

this is like the piano.

Artist:Bruno Mars
Title:Grenade


    Dmin                             Amin
|-1----1----1----1---1-1-------0----0---0----0---0-0---|
|--3----3----3----3---3-3-------2----2---2----2---2-2--|
|---2----2----2----2-------------2----2---2----2-------| Do this a few times
|------------------------------------------------------|
|------------------------------------------------------|        lolz
|------------------------------------------------------|
comments
print report bad tab
5 comments total. Showing first comments.
0 reply
Reprezent wrote on December 20 2010, 07:15 pm

The Aminor Chord shape is 002210. The Dminor part is right, but for Aminor it should be based on the chord shape.

I also got more of a different rhythm than you... This is mine :P

Dminor:1 1 1 1 1 1
3 3 3 3 3 3
2 2 2 2

Aminor:0 0 0 0 0 0
1 1 1 1 1 1
2 2 2 2

0 reply
Reprezent wrote on December 20 2010, 07:21 pm

Err. This is a correction of the first one :P
New to this site >.<

Dminor:1-----1-----1---1-----1-----1----
---------3-----3-----3---3-----3-----3--
-----------2-----2---------2-----2-----

Aminor:0-----0-----0---0-----0-----0----
---------1-----1-----1---1-----1-----1--
-----------2-----2---------2-----2-----

0 reply
King R wrote on January 4 2011, 05:17 pm

gotta agree with reprezent lol what you had was not an Aminor

I want to post or [tab]
guest
You may want to rate the tab now too:
select rating
Please do not post tabs as comments. Select "correction" instead!