Oops, an error
Loading. Please wait.

Grenade Tab

version 3
44,147 views 3 this week
2 commentsread comments
1 2 3 4 5
x 6
add to favorites
launch autoscroll
font size
0
reset
how to read this tab
guitar tuner
Autoscroll
slow
fast
+/-
esc
set tempo
stop
Help us to improve Ultimate-Guitar.com Take our survey!
×
Author
Well, this is my first tab, and i hope u guys enjoy it :)
I took only a few minutes to figure this out, actually. So, it's not so hard to be played.

Rate and comment please.
And if there is any mistake, feel free to let me know.
I'd appreciate that :)


         
|-1---1---1---1---1-1----------0---0---0---0---0-0----|
|---3---3---3---3----------------2---2---2---2--------|
|--2---2---2---2---2-2----------1---1---1---1---1-1---|
|-----------------------------------------------------|
|-----------------------------------------------------|
|-----------------------------------------------------|

This is the intro part of the song, but you can also play this in a few other parts.
Just listen to this song a few times and you'll know when to play this :)

Rate if you think this is correct, leave comments if you think this is quite wrong.

Enjoy :)
Suggest correction
comments
print report bad tab
2 comments total.
0 reply
corypaul79 10 Feb 18, 2011 03:25 PM

2nd chord is wrong...switch the 2 and 1

0 reply
michaelpc 10 Mar 12, 2011 09:40 AM

it's wrong.
|-1---1---1---1---1-1-----
|---3---3---3---3---------
|--2---2---2---2---2-2----
|-------------------------
|-------------------------
|-------------------------
i'll just take the first chord as the example.
below is the correct one. sorry if it's not clear.
|-1---1---1---1---1---1---try to listen a couple more time
|---3---3---3---3---3--3--
|--2---2-------2---2------
|-------------------------
|-------------------------
|-------------------------

guest
You may want to rate the tab now too:
select rating
Wanna post a correction for this tab? Suggest correction