Oops, an error
Loading. Please wait.
We have an official Grenade tab made by UG professional guitarists. Check out the tab »
×

Grenade solo tab

version 1
version 1

Solo

  • My tab goes up to the 6th fret normally, and in on... Show more
265 views 21 this week
1 commentread comment
1 2 3 4 5
2 more votes to show rating
add to favorites
×
Save as Personal and add changes to this tab that will be seen only by you. Learn more ›
×
You can save this tab as Personal to edit and correct it or add notes. All changes will be seen only by you. Learn more »
launch autoscroll
font size
0
reset
how to read this tab
guitar tuner
backing track
0:00
0:00
edit
Autoscroll
slow
fast
+/-
esc
set tempo
stop
About this tab version
My tab goes up to the 6th fret normally, and in one point of the tab it goes up to the 8th or 10th fret, but only on the first string, the second string goes up to the third fret, and the third is only used in the intro breifly. Was this info helpful? Yes No
Repeat with his voice:
e|------1------1------1------------0-----0-----0-----------------------------|
B|-------3------3------3------------2-----2-----2----------------------------|
G|--------2------2----------(x2)-----2-----2---------(x2)--------------------|
D|---------------------------------------------------------------------------|
A|---------------------------------------------------------------------------|
E|---------------------------------------------------------------------------|

(First two notes are "I'd catch...)
e|--5--5--3--5--6--1--------3--3--3--1--3-5-1---------1--1-8--6--5--6--1-----|
B|--------------------3-----------------------3-------------------------3----|
G|---------------------------------------------------------------------------|
D|---------------------------------------------------------------------------|
A|---------------------------------------------------------------------------|
E|---------------------------------------------------------------------------|


e|---1--1-8--6--5--6--1----------------5-3--1---1--3-------------------------|
B|---------------------3----------------------3------------------------------|
G|---------------------------------------------------------------------------|
D|---------------------------------------------------------------------------|
A|---------------------------------------------------------------------------|
E|---------------------------------------------------------------------------|


e|---1--3-5--5--5-3--1--3------8--8--8-10-10-5-3--------3--3--1-5----3-1--1--|
B|------------------------1--1-------------------------------------3---------|
G|---------------------------------------------------------------------------|
D|---------------------------------------------------------------------------|
A|---------------------------------------------------------------------------|
E|---------------------------------------------------------------------------|


e|----3--3--1--0-------------------------------------------------------------|
B|---------------3-----------------------------------------------------------|
G|---------------------------------------------------------------------------|
D|---------------------------------------------------------------------------|
A|---------------------------------------------------------------------------|
E|---------------------------------------------------------------------------|

            
            
Suggest correction
Creating personal tab
Creating personal tab
You can edit any tab online and save it as your Personal.

You can edit, replace or remove any tab part or add personal notes – all changes will be seen only by you.

Personal tabs can be accessed anytime from any device, even offline.
Learn more »
Give kudos to tab author, rate the tab!
1 2 3 4 5
comments
print report bad tab
1 comment total.
0 reply
KateCowan 10 Sep 06, 2017 07:51 PM

because its sounds like the some Dows

guest
You may want to rate the tab now too:
select rating
Wanna post a correction for this tab? Suggest correction