Oops, an error
Loading. Please wait.

Grenade Tab

version 1
version 1
215,807 views 150 this week
4 commentsread comments
1 2 3 4 5
accurate
x 34
add to favorites
launch autoscroll
font size
0
reset
how to read this tab
guitar tuner
Tab Pro tools
  • play this tab
  • loop segment
  • change instrument
  • show fretboard
  • metronome
×
Best way to learn
"Grenade"
Autoscroll
slow
fast
+/-
esc
set tempo
stop
Contributor
Difficulty
Capo
novice
5th fret
                        
-----------------------------------------------------------------------------
                           - Bruno Mars-Grenade -
-----------------------------------------------------------------------------

Tabbed by Elli

Capo 5th Fred


Intro:
    Am             Am           G            G
|--------------------------------------------------------|
|---1----1----1----1---1---1----0---0---0----0---0---0---|
|----2----2----2----2---2---2----0---0---0----0---0---0--|
|-----2----2---------2---2--------0---0--------0---0-----|     
|--------------------------------------------------------|    
|--------------------------------------------------------|

3x

    Am             Am           G            G
|--------------------------------------------------------|
|---1----1----1----1---1---1----0---0---0----0---0---0---|
|----2----2----2----2---2---2----0---0---0----0---0---0--|
|-----2----2---------2---2--------0---0--------0---0-----|     
|--------------------------------------------------------|    
|--------------------------------------------------------|


    Am             Am               G           G
|------------------------------|
|---1----1----1----1---1---1---|
|----2----2----2----2---2---2--|
|-----2----2---------2---2-----|     
|------------------------------|    
|------------------------------|


Chorus:
                Am                G
I'd catch a grenade for ya (yeah, yeah)
                     Am                 G
Throw my hand on a blade for ya (yeah, yeah)
                         Am                  G 
I'd jump in front of a train for ya (yeah, yeah)
                      Am                 G
You know I'd do anything for ya (yeah, yeah)
                Am                        G
Oh, oh, I would go through all of this pain,
       Am                G          Am
Take a bullet straight through my brain!
              Am            G (stop)
Yes, I would die for ya, baby,
                          (Am)
But you won't do the same. 


Intro: 

    Am             Am           G            G
|--------------------------------------------------------|
|---1----1----1----1---1---1----0---0---0----0---0---0---|
|----2----2----2----2---2---2----0---0---0----0---0---0--|
|-----2----2---------2---2--------0---0--------0---0-----|     
|--------------------------------------------------------|    
|--------------------------------------------------------|

3x
    Am             Am           G            G
|--------------------------------------------------------|
|---1----1----1----1---1---1----0---0---0----0---0---0---|
|----2----2----2----2---2---2----0---0---0----0---0---0--|
|-----2----2---------2---2--------0---0--------0---0-----|     
|--------------------------------------------------------|    
|--------------------------------------------------------|


    Am             Am               G           G
|------------------------------|
|---1----1----1----1---1---1---|
|----2----2----2----2---2---2--|
|-----2----2---------2---2-----|     
|------------------------------|    
|------------------------------|



Chorus:
                Am                G
I'd catch a grenade for ya (yeah, yeah)
                     Am                 G
Throw my hand on a blade for ya (yeah, yeah)
                         Am                  G 
I'd jump in front of a train for ya (yeah, yeah)
                      Am                 G
You know I'd do anything for ya (yeah, yeah)
                Am                        G
Oh, oh, I would go through all of this pain,
       Am                G          Am
Take a bullet straight through my brain!
              Am            G (stop)
Yes, I would die for ya, baby,
                          (Am)
But you won't do the same


Bridge:

Dm
If my body was on fire,
Am
Ooh, you'd watch me burn down in flames.
Dm
You said you loved me, you're a liar,
            Am    Am    G
'cause you never, ever, ever did, baby!


    Am             Am               G           G
|------------------------------|
|---1----1----1----1---1---1---|
|----2----2----2----2---2---2--|
|-----2----2---------2---2-----|     
|------------------------------|    
|------------------------------|
But, darling 

Chorus:

                Am                G
I'd catch a grenade for ya (yeah, yeah)
                     Am                 G
Throw my hand on a blade for ya (yeah, yeah)
                         Am                  G 
I'd jump in front of a train for ya (yeah, yeah)
                      Am                 G
You know I'd do anything for ya (yeah, yeah)
                Am                        G
Oh, oh, I would go through all of this pain,
       Am                G          Am
Take a bullet straight through my brain!
              Am            G (stop)
Yes, I would die for ya, baby,
                          (Am)
But you won't do the same

2x
    Am             Am           G            G
|--------------------------------------------------------|
|---1----1----1----1---1---1----0---0---0----0---0---0---|
|----2----2----2----2---2---2----0---0---0----0---0---0--|
|-----2----2---------2---2--------0---0--------0---0-----|     
|--------------------------------------------------------|    
|--------------------------------------------------------|
comments
print report bad tab
4 comments total. Showing first comments.
0 reply
GuitarTabMaster wrote on March 13 2013, 07:51 pm

awesome! Keep up the good work :)

0 reply
peterk wrote on August 7 2013, 12:48 am

"Capo 5th Fred"
Just out of curiosity, who's Fred? and what happened to his previous 4 namesakes?? :)

More seriously, a good tab overall. Thanks for the time invested.

0 reply
AverageG wrote on March 11 2014, 09:21 pm

What's the strumming pattern?
I can't figure it out.

I want to post or [tab]
guest
You may want to rate the tab now too:
select rating
Please do not post tabs as comments. Select "correction" instead!