Oops, an error
Loading. Please wait.

Grenade Tab

version 2
version 2
42,829 views 6 this week
1 commentread comment
1 2 3 4 5
accurate
x 7
add to favorites
launch autoscroll
font size
0
reset
how to read this tab
guitar tuner
Tab Pro tools
  • play this tab
  • loop segment
  • change instrument
  • show fretboard
  • metronome
×
Best way to learn
"Grenade"
Autoscroll
slow
fast
+/-
esc
set tempo
stop
Contributor
Difficulty
Tuning
novice
D A D G B E
--------------------------------------------------------------
                     Grenade - Bruno Mars
--------------------------------------------------------------

Tabbed by:XxGuitarZer0xX (RandomKidWithGuitar)

Email:Spongebobs400s@hotmail.com

Tuning: Drop D
Drop D
e|-|
B|-|
G|-|
D|-|
A|-|
D|-|

BEFORE YOU READ THIS TAB. WATCH THIS VIDEO - 
http://www.youtube.com/watch?v=QmYpJEfLves
This will help you learn it, and listen to how it should be played

Rock Version of Grenade


Intro - T= a note to tap
e|--------------------------------------------------------------------------|
B|--------------------------------------------------------------------------|
G|-12p10-12p10-12p10-12p9~-12p9-12p9-12p9-12p10~-12p10-12p10-12p10-12p9~-7~-|
D|--------------------------------------------------------------------------|
A|--------------------------------------------------------------------------|
D|--------------------------------------------------------------------------|
    T     T     T     T     T    T    T    T      T     T     T     T 


Verse - This is used with or without palm muting, to your liking.
e|-----------------------------------------------------------------------|
B|-6-5---6-5---6-5-6-5---6-5---6-5---6-5---------------------------------|
G|-----7-----7---------7-----7-----7-----9-7-5-9-7-5-9-7-9-7-5-9-7-5-9-7-|
D|-----------------------------------------------------------------------|
A|-----------------------------------------------------------------------|
D|-----------------------------------------------------------------------|
Repeat throughout the verses.



Chorus Part 1 - Palm Muted or open to your liking.
e|-------------------------|
B|-------------------------|
G|-------------------------|
D|-0000-8888-3333-10101010-|
A|-0000-8888-3333-10101010-|
D|-0000-8888-3333-10101010-|
These are 10's

Chorus Part  2 - Palm Muted or open to your liking.
e|--------------------------------------------------|
B|--------------------------------------------------|
G|-33333333-55555555------2222-7777-5555-33333333-2-|
D|-33333333-55555555-3333-2222-7777-5555-33333333-2-|
A|-11111111-33333333-3333-0000-5555-3333-11111111-0-|
D|-------------------3333---------------------------|



Post-Chorus
e|-------------------------------------------------------------------------|
B|-6p5h6p5h6~-6p5h6~-6p5h6p5h6~-6p5h6~-5p3h5p3h5~-5p3h5~-5p3h5p3h5~-5p3h5~-|
G|-------------------------------------------------------------------------|
D|-------------------------------------------------------------------------|
A|-------------------------------------------------------------------------|
D|-------------------------------------------------------------------------|



Verse - Same as before, but instead of strumming, I tap the 8th fret to give it a full sound
e|-----------------------------------------------------------------|
B|-6-5-3-6-5-3-6-5-6-5-3-6-5-3-6-5-5-3-1-5-3-1-5-3-5-3-1-5-3-1-5-3-|
G|-----------------------------------------------------------------|
D|-----------------------------------------------------------------|
A|-----------------------------------------------------------------|
D|-----------------------------------------------------------------|
Repeat throughout the verses.

You can play it the usual way also
e|-----------------------------------------------------------------------|
B|-6-5---6-5---6-5-6-5---6-5---6-5---6-5---------------------------------|
G|-----7-----7---------7-----7-----7-----9-7-5-9-7-5-9-7-9-7-5-9-7-5-9-7-|
D|-----------------------------------------------------------------------|
A|-----------------------------------------------------------------------|
D|-----------------------------------------------------------------------|



Pre-Chorus
e|--------------------------------------------------------------|
B|--------------------------------------------------------------|
G|---------------------------------------------------33333333-2-|
D|-0000000000000000-888888888888888-0000000000000000-33333333-2-|
A|-0000000000000000-888888888888888-0000000000000000-11111111-0-|
D|-0000000000000000-888888888888888-0000000000000000------------|

Optional Natural Harmonic
e|-5*-|
B|-5*-|
G|----|
D|----|
A|----|
D|----|



Chorus Part 1 - Palm Muted or open to your liking.
e|-------------------------|
B|-------------------------|
G|-------------------------|
D|-0000-8888-3333-10101010-|
A|-0000-8888-3333-10101010-|
D|-0000-8888-3333-10101010-|
These are 10's

Chorus Part  2 - Palm Muted or open to your liking.
e|--------------------------------------------------|
B|--------------------------------------------------|
G|-33333333-55555555------2222-7777-5555-33333333-2-|
D|-33333333-55555555-3333-2222-7777-5555-33333333-2-|
A|-11111111-33333333-3333-0000-5555-3333-11111111-0-|
D|-------------------3333---------------------------|



Bridge - Kinda a guitar solo. *= a harmonic
e|---------------------------------|
B|---------------------------------|
G|----------10-12~----------10-12*-|
D|-10-12-14--------10-12-14--------| Repeat twice
A|---------------------------------|
D|---------------------------------|

e|-----------------------------|
B|-----------------------------|
G|---------9-10~---------9-10*-|
D|-9-10-12-------9-10-12-------| Repeat twice
A|-----------------------------|
D|-----------------------------|

e|----------------------------------------------------------11~-|
B|---------------------------------------9h10h12-9-10-12-14-----|
G|----------10-12~----------10-12~-10-12------------------------|
D|-10-12-14--------10-12-14-------------------------------------|
A|--------------------------------------------------------------|
D|--------------------------------------------------------------|

e|-12----12------14----14-----15----15-------------------------------------|
B|-15b17-15bg17--17b19-17b19--18b20-18b20--10------------------------------|
G|-----------------------------------------12b14~-10h12p10h12p10h12p10-----|
D|---------------------------------------------------------------------12~-|
A|-------------------------------------------------------------------------|
D|-------------------------------------------------------------------------|



Pre-Chorus
e|----5*-|
B|----5*-|
G|-2-----|
D|-2-----|
A|-0-----|
D|-------|



Chorus Part 1 - Palm Muted or open to your liking.
e|-------------------------|
B|-------------------------|
G|-------------------------|
D|-0000-8888-3333-10101010-|
A|-0000-8888-3333-10101010-|
D|-0000-8888-3333-10101010-|
These are 10's

Chorus Part  2 - Palm Muted or open to your liking.
e|--------------------------------------------------|
B|--------------------------------------------------|
G|-33333333-55555555------2222-7777-5555-33333333-2-|
D|-33333333-55555555-3333-2222-7777-5555-33333333-2-|
A|-11111111-33333333-3333-0000-5555-3333-11111111-0-|
D|-------------------3333---------------------------|



Outro - Same as verses, but instead of strumming, I tap the 8th fret to give it a full sound
e|-----------------------------------------------------------------|
B|-6-5-3-6-5-3-6-5-6-5-3-6-5-3-6-5-5-3-1-5-3-1-5-3-5-3-1-5-3-1-5-3-|
G|-----------------------------------------------------------------|
D|-----------------------------------------------------------------|
A|-----------------------------------------------------------------|
D|-----------------------------------------------------------------|
Repeat throughout the verses.

You can play it the usual way also
e|-----------------------------------------------------------------------|
B|-6-5---6-5---6-5-6-5---6-5---6-5---6-5---------------------------------|
G|-----7-----7---------7-----7-----7-----9-7-5-9-7-5-9-7-9-7-5-9-7-5-9-7-|
D|-----------------------------------------------------------------------|
A|-----------------------------------------------------------------------|
D|-----------------------------------------------------------------------|






Any questions or concerns, email me. Please check out my video! 
comments
print report bad tab
1 comment total.
0 reply
reillyboy1 wrote on June 9 2015, 02:04 pm

Lack of accuracy. Clearly wrong. It doesn't sound anything like the original recording. I just played it and it's nowhere near the original. Every other tab on here is better.

I want to post or [tab]
guest
You may want to rate the tab now too:
select rating
Please do not post tabs as comments. Select "correction" instead!