Oops, an error
Loading. Please wait.

Grenade Tab

version 5
version 5

Interactive

Video

9,065 views 9 this week
no commentswrite comment
1 2 3 4 5
please rate
add to favorites
launch autoscroll
font size
0
reset
how to read this tab
guitar tuner
Autoscroll
slow
fast
+/-
esc
set tempo
stop
Help us to improve Ultimate-Guitar.com Take our survey!
×
Author
Difficulty
Tuning
novice
E B E G# B E
-------------------------------------------------------------------------------
                             Grenade-Bruno Mars
-------------------------------------------------------------------------------
Tabbed by: ulquiorrakiller
Email: ulquiorrakiller@yahoo.com

Tuning:

Verse:
                  /                   /                 /
e|-1---1---1---1----0----0----0----0----1---1---1----1---0----0----0----0----|
B|--3---3---3---3----1----1----1----1----3---3---3----3---1----1----1----1---|
G|---------------------------------------------------------------------------|
D|----0---0---0--0----2----2----2----0----0---0---0----0---2----2----2----0--|
A|---------------------------------------------------------------------------|
E|---------------------------------------------------------------------------|
Easy come, easy go
That's just how you live, oh/
Take, take, take it all,
But you never give/
Should have known you were strong/
from the first kiss, had your eyes wide open,/
[silence] Why were they open?


Refrain:
                  /                  /                 /         /
e|-1---1---1---1---0----0----0----0----1---1---1----1--------------0------------|
B|--3---3---3---3---1----1----1----1----3---3---3----3---3----3----2------------|
G|--------------------------------------------------------3----3---2------------|
D|----0---0---0--0----2----2----2---0-----0---0---0---0------------2------------|
A|----------------------------------------------------------1------0------------|
E|-----------------------------------------------------------------x------------|
Gave you all I had and you tossed it in the trash/
You tossed it in the trash, you did/
To give me all your love is all I ever asked/
'Cause what you don't/ understand is


Chorus:

                Dm      Bb        F
I'd catch a grenade for ya (yeah, yeah)
          C         Dm       Bb        F
Throw my hand on a blade for ya (yeah, yeah)
              C         Dm       Bb        F
I'd jump in front of a train for ya (yeah, yeah)
              C      Dm      Bb         F  -  C
You know I'd do anything for ya (yeah, yeah)
(C)             Bb                     C
Oh, oh, I would go through all of this pain,
        F                 A         Dm - C
Take a bullet straight through my brain!
(C)           Bb              A
Yes, I would die for ya, baby,
(A-pause)
But you won't do the same.


e|-1---1---1---1---0----0----0----0------------------------------------------|
B|--3---3---3---3---1----1----1----1-----------------------------------------|
G|---------------------------------------------------------------------------|
D|----0---0---0--0----2----2----2--------------------------------------------|
A|---------------------------------------------------------------------------|
E|---------------------------------------------------------------------------|
no,no,no....no!

verse 2:
                  /                   /                /
e|-1---1---1---1---0----0----0----0----1---1---1----1---0----0----0----0-----|
B|--3---3---3---3---1----1----1----1----3---3---3----3---1----1----1----1----|
G|---------------------------------------------------------------------------|
D|----0---0---0--0----2----2----2----0----0---0---0---0----2----2----2---0---|
A|---------------------------------------------------------------------------|
E|---------------------------------------------------------------------------|
Gave you all I had and you tossed it in the trash/
You tossed it in the trash, you did/
To give me all your love is all I ever asked/
'Cause what you don't understand is


Refrain:

e|-1---1---1---1---0----0----0----0----1---1---1----1--------------0------------|
B|--3---3---3---3---1----1----1----1----3---3---3----3---3----3----2------------|
G|--------------------------------------------------------3----3---2------------|
D|----0---0---0-------2----2----2---------0---0---0----------------2------------|
A|----------------------------------------------------------1------0------------|
E|-----------------------------------------------------------------x------------|
|

Chorus:

                Dm      Bb        F
I'd catch a grenade for ya (yeah, yeah)
          C         Dm       Bb        F
Throw my hand on a blade for ya (yeah, yeah)
              C         Dm       Bb        F
I'd jump in front of a train for ya (yeah, yeah)
              C      Dm      Bb         F  -  C
You know I'd do anything for ya (yeah, yeah)
(C)             Bb                     C
Oh, oh, I would go through all of this pain,
        F                 A         Dm - C
Take a bullet straight through my brain!
(C)           Bb              A
Yes, I would die for ya, baby,
(A-pause)
But you won't do the same.

Bridge:

Gm
  If my body was on fire,
Dm
  Ooh, you'd watch me burn down in flames.
Gm
  You said you loved me, you're a liar,
            A
'cause you never, ever, ever did, baby!

(Dm - Dm - Am - Am/pause)

but darling

Chorus:

                      Dm      Bb        F
I'd still catch a grenade for ya (yeah, yeah)
          C         Dm       Bb        F
Throw my hand on a blade for ya (yeah, yeah)
              C         Dm       Bb        F
I'd jump in front of a train for ya (yeah, yeah)
              C      Dm      Bb         F  -  C
You know I'd do anything for ya (yeah, yeah)
(C)             Bb                     C
Oh, oh, I would go through all of this pain,
        F                 A         Dm - C
Take a bullet straight through my brain!
(C)           Bb              A
Yes, I would die for ya, baby,
(A-pause)
But you won't do the same.

Outro:
                  /                   /                /
e|-1---1---1---1---0----0----0----0----1---1---1----1---0----0----0----0-----|
B|--3---3---3---3---1----1----1----1----3---3---3----3---1----1----1----1----|
G|---------------------------------------------------------------------------|
D|----0---0---0--0----2----2----2---2-----0---0---0---0----2----2----2---0---|
A|---------------------------------------------------------------------------|
E|---------------------------------------------------------------------------|
No, you won't do the same/
You wouldn't do the same/
Ooh, you never do the same/
No, no, no, no

************************************

| /   slide up
| \   slide down
| h   hammer-on
| p   pull-off
| ~   vibrato
| +   harmonic
| x   Mute note
| b   Bend
| pb  Pre-bend
| br  Bend release
| pbr Pre-bend release
| brb Bend release bend

************************************
Suggest correction
What's this?
You can suggest a correction to this tab. Community and Mods will review your correction and vote to approve or reject it.
comments
We did not receive enough feedback on this tab! Please rate:
print report bad tab
1 2 3 4 5
guest
You may want to rate the tab now too:
select rating
Please do not post tabs as comments. Select "correction" instead!