Oops, an error
Loading. Please wait.

Grenade Tab

version 6
version 6

Interactive

Video

28,010 views 9 this week
1 commentread comment
1 2 3 4 5
accurate
x 11
add to favorites
launch autoscroll
font size
0
reset
how to read this tab
guitar tuner
Autoscroll
slow
fast
+/-
esc
set tempo
stop
Help us to improve Ultimate-Guitar.com Take our survey!
×
Author
     Dm                                               Am

E||--1---------1--------1-----1--------1--------1-----0--------0-----------|
B||-----3---------3--------3-----3--------3--------3-----1--------1--------|
G||--------2---------2--------------2--------2--------------2--------2-----|
D||------------------------------------------------------------------------|
A||------------------------------------------------------------------------|
E||------------------------------------------------------------------------|



-0-----0--------0--------0-----1---------1--------1-----1--------1--------1---|
---1-----1--------1--------1-----3---------3--------3-----3--------3--------3-|
-----------2--------2--------------2---------2--------------2--------2--------|
------------------------------------------------------------------------------|
------------------------------------------------------------------------------|
------------------------------------------------------------------------------|

                          A  Dm

--0--------0--------0-----0--1-------1-------1-----1-------1--------1--------|
----1--------1--------1---2----3-------3-------3-----3-------3--------3------|
------2--------2----------2------2-------2-------------2-------2-------------|
--------------------------2--------------------------------------------------|
--------------------------x--------------------------------------------------|
-----------------------------------------------------------------------------|

 Am                                     Dm

-0------0-----0-----0------0------0-----1-------1--------1-----1------1------|
---1------1-----1-----1------1------1-----3-------3--------3-----3------3----|
-----2------2-----------2------2------------2--------2-------------2------2--|
-----------------------------------------------------------------------------|
-----------------------------------------------------------------------------|
-----------------------------------------------------------------------------|

       Bb                  C     *strum*(chorus) - Dm-Bb-F-C x4
                                                   Bb--C--F-A-Dm-C-Bb---|A
-1-----1------1------1-----0--------------------------------------------|
---3-----3------3------3---1--------------------------------------------|
-----------3------3--------0--------------------------------------------|
---------------------------2--------------------------------------------|
---------------------------3--------------------------------------------|
---------------------------x--------------------------------------------|


   compare it with the music video!! :)
Suggest correction
comments
print report bad tab
1 comment total.
0 reply
Franz0904 10 wrote on February 16 2013, 08:43 pm

Really great

guest
You may want to rate the tab now too:
select rating
Wanna post a correction for this tab? Suggest correction