Oops, an error
Loading. Please wait.

Just The Way You Are Tab

version 1
version 1

Acoustic

  • There are no tabs for the cover version by Anthem Lights.

Interactive

364 views 27 this week
no commentswrite comment
1 2 3 4 5
3 more votes to show rating
add to favorites
launch autoscroll
font size
0
reset
how to read this tab
guitar tuner
Autoscroll
slow
fast
+/-
esc
set tempo
stop
Help us to improve Ultimate-Guitar.com Take our survey!
×
About this tab version
There are no tabs for the cover version by Anthem Lights. Was this info helpful? Yes No
Listen to the song to hear how he changes strumming through the song. It's pretty simple.
Here's a link to the song: https://www.youtube.com/watch?v=33p4DhrnzUw


This is the strumming, just keep repeating it for each chord.

          pm        pm      pm~~
e|---0----0----0----0----0--0-0----|
B|---0----0----0----0----0--0-0----|
G|---9----9----9----9----9--9-9----|
D|---9----9----9----9----9--9-9----|
A|---7----7----7----7----7--7-7----|
E|---x----x----x----x----x--x-x----|


And here are the chords:

    E5   Emaj7   C#min7   C#min9   Asus2   A5add9add#11
e|--0-----0-------0---------0--------0-------0------------|
B|--0-----0-------0---------0--------0-------0------------|
G|--9-----8-------9---------8--------9-------8------------|
D|--9-----9-------9---------9--------9-------9------------|
A|--7-----7-------x---------x--------0-------0------------|
E|--x-----x-------9---------9--------x-------x------------|



************************************

| x  Dead note

************************************
Suggest correction
Give kudos to tab author, rate the tab!
1 2 3 4 5
comments
print report bad tab
guest
You may want to rate the tab now too:
select rating
Wanna post a correction for this tab? Suggest correction