Oops, an error
Loading. Please wait.

Just The Way You Are Tab

version 5
version 5

Interactive

Video

10,989 views 1 this week
no commentswrite comment
1 2 3 4 5
please rate
add to favorites
launch autoscroll
font size
0
reset
how to read this tab
guitar tuner
Autoscroll
slow
fast
+/-
esc
set tempo
stop
Help us to improve Ultimate-Guitar.com Take our survey!
×
Author
Guitar 1 (Acoustic)

Intro

e----------------|
B-11-10-11-13-13-|
G-10-10-10-10-10-|
D-10-10-10-10-10-|strum get the exact timing
A----------------|
E----------------|
 
Verse/Chorus: F - Dm - Bb - F

Guitar 2 (Delay)

e----13----13----------------------------------|
B-------------13----13----11-10----11-13----13-|
G-10----10-------10----10-------10-------10----|
D----------------------------------------------| 
A----------------------------------------------|
E----------------------------------------------|

Guitar 3

Intro (Distortion)

e--------------------------------------|
B-s10~-8s11-10~-8s11-10----------------|
G-----------------------8s10~-10s12-10~|
D--------------------------------------|
A--------------------------------------|
E--------------------------------------|


Verse (Clean)

e-5555-5555-6666-5555-|
B-6666-6666-6666-6666-|
G-5555-7777-7777-5555-|
D-7777-7777-8888-7777-|
A-8888-5555-8888-8888-|
E---------------------|

Chorus (Clean)

e-----------------|
B-6-----6-----8---|
G---5-----5-----5-|
D-----7-----7-----|X2
A-8-----------8---|
E-----------------|

e-----------------|
B-6-----6-----8---|
G---7-----7-------|
D-----7-----7---7-|X2
A-5-----------5---|
E-----------------|

e-----------------|
B-6-----6-----6---|
G---7-----7-----7-|
D-----8-----8-----|X2
A-8-----------8---|
E-----------------|
Suggest correction
What's this?
You can suggest a correction to this tab. Community and Mods will review your correction and vote to approve or reject it.
comments
We did not receive enough feedback on this tab! Please rate:
print report bad tab
1 2 3 4 5
guest
You may want to rate the tab now too:
select rating
Please do not post tabs as comments. Select "correction" instead!