Oops, an error
Loading. Please wait.

Liquor Store Blues Tab

version 1
version 1

Solo

Whole song

19,977 views 6 this week
4 commentsread comments
1 2 3 4 5
x 10
add to favorites
launch autoscroll
font size
0
reset
how to read this tab
guitar tuner
Autoscroll
slow
fast
+/-
esc
set tempo
stop
Help us to improve Ultimate-Guitar.com Take our survey!
×
Author
|--9-9p7--9p7---------------------------------|
|--------------9~--9-9p7-----7-7---7----------|
|-------------------------9~-----9---9-8~-----|
|------------------------------------------6~-|
|---------------------------------------------|
|---------------------------------------------|

|--9-9p7--9p7------------------------7--------|
|--------------9~--9-9p7-----7-7---7----9~-7~-|
|-------------------------9~-----9------------|
|---------------------------------------------|
|---------------------------------------------|
|---------------------------------------------|

|--------------------------------------------------------------|
|--------------------------------------------------------------|
|-----------11-11h13~--11b13r11p9----9~-11--11b13r11p9-9~------|
|--11-13-14-----------------------11----------------------11p9-|
|--------------------------------------------------------------|
|--------------------------------------------------------------|

|-------------------------------------------------9-------------------------------|
|---------------------------------------------------12p9----9---------------------|
|-----------11-11h13~--11b13r11p9----9~-----11b13--------11---11b13r11p9----9-----|
|--11-13-14-----------------------11----11-------------------------------11---11~-|
|---------------------------------------------------------------------------------|
|---------------------------------------------------------------------------------|
Suggest correction
comments
print report bad tab
4 comments total. Showing first comments.
0 reply
MusicMan24 1,114 May 19, 2011 10:47 PM

It's perfect. But only 3 stars because you only have the first half.

0 reply
gabrieleclavia 10 May 31, 2011 12:53 AM

what is the "p" thing?

0 reply
MarcAnthony 10 Aug 15, 2011 05:31 PM

Whens The Other Part Cominq?? And @Gabrieleclavia It Stands For Pull Off

guest
You may want to rate the tab now too:
select rating
Wanna post a correction for this tab? Suggest correction