Oops, an error
Loading. Please wait.

Locked Out Of Heaven Bass Tab

version 1
version 1

Whole song

Interactive

156,610 views 294 this week
8 commentsread comments
1 2 3 4 5
accurate
x 38
add to favorites
launch autoscroll
font size
0
reset
guitar tuner
Tab Pro tools
  • play this tab
  • loop segment
  • change instrument
  • show fretboard
  • metronome
×
Best way to learn
"Locked Out Of Heaven"
Autoscroll
slow
fast
+/-
esc
set tempo
stop
Contributor
Difficulty
Bruno Mars - Locked out of Heaven Bass Tab


You can find a video for this tab being played here...

http://www.youtube.com/watch?v=Dx8JCcW0zuM


Main Riff

G|-------------------------------------------|
D|-------------------------------------------|
A|-3-5---3h5-3-------------------------------|
E|-------------5-6---5h6-5-1-3--33-3--33-3---|


If you have a 5 String, you can make your life easier by playing it like this...

G|-------------------------------------------|
D|-------------------------------------------|
A|-3-5---3h5-3-------------------------------|
E|-------------5-6---5h6-5---3--33-3--33-3---|
B|-------------------------6-----------------|


Pre - Chorus

G|-------------------------------------------------------------------|
D|-------------------------------------5h7-----5h7-----5h7-----5h7---|
A|-------------------------------------------------------------------|
E|-1-1-1-1-1-1-1-1-1-1-1-1-1-1-1-1-5-5-----5-5-----5-5-----5-5-------|


Chorus

G|---------------------------------------------------------------------------|
D|---------------------------------------------------------------------------|
A|---------------------------------------------------------------------------|
E|-66666666-66666666-33333333-33333333-11111111-11111111-88888888-88888888---|


Breakdown (Quite bit)Same as Chorus but Just the 1st note...

G|-------------------------------------------|
D|-------------------------------------------|
A|-------------------------------------------|
E|--6---------3-----------1-----------8------|


***NOTE***

If you Came here linked from the video I made for this tab, The Chorus is played like 
this instead...


G|---------------------------------------------------------------------------|
D|---------------------------------------------------------------------------|
A|-------------------55555555-55555555---------------------------------------|
E|-66666666-66666666-------------------11111111-11111111-55555555-55555555---|


Awesome Song, Hope you have as much fun playing it as I do :)

http://www.facebook.com/HarryHopkinsonBass
comments
print report bad tab
8 comments total. Showing first comments.
+3 reply
shrofepittly wrote on December 13 2012, 02:02 pm

You could also just use open A if you find either of your ways too difficult but correct either way.

G|-------------------------------------------|
D|-------------------------------------------|
A|-3-5---3h5-3-0-1---0h1-0-------------------|
E|-------------------------1-3--33-3--33-3---|

0 reply
shrofepittly wrote on December 13 2012, 02:05 pm

That did not format well...

0 reply
TheFifthString wrote on January 14 2013, 12:40 pm

warwick 5 string bass in the video likely has a better performance on the lower string than my cheapo 33 inch scale acoustic!

I want to post or [tab]
guest
You may want to rate the tab now too:
select rating
Please do not post tabs as comments. Select "correction" instead!