Oops, an error
Loading. Please wait.

Locked Out Of Heaven Bass Tab

version 2
version 2

Whole song

Interactive

25,632 views 30 this week
1 commentread comment
1 2 3 4 5
accurate
x 10
add to favorites
launch autoscroll
font size
0
reset
guitar tuner
Tab Pro tools
  • play this tab
  • loop segment
  • change instrument
  • show fretboard
  • metronome
×
Best way to learn
"Locked Out Of Heaven"
Autoscroll
slow
fast
+/-
esc
set tempo
stop
Contributor
Difficulty
Locked out of heaven bass tabs

Intro/ Verse
G|-------------------------------------------------------|
D|-------------------------------------------------------|
A|3-5---3-5-3-0-1---0-1--0-------------------------------|
E|--------------------------------1-3--33-3--33-3--------|

Pre-Chorus
G|-----------------------------------------------|
D|-------------------77---77---77----7\3---------|
A|-----------------------------------------------|
E|-1 (x16)---55----55---55---55------------------|

Chorus
G|-------------------------------------------------------------------------|
D|-------------------------------------------------------------------------|
A|-1(x16)------------------------3 (x16)-----------------------------------|
E|-----------3 (x16)---1 (x16)---------------------------------------------|

Chorus 2
G|----------------------------------------------------------------------------------------|
D|--------------2/8 (x8)-------------------------------------------------------4/10 (x8)--|
A|-1 (x8)--------------------------4/10 (x8)------------2/8 (x8)--3 (x8)------------------|
E|--------------------------3 (x8)----------------1 (x8)----------------------------------|

Bridge
G|----------------------------------------------------------------------|
D|----------------------------------------------------------------------|
A|--1~----------------------------------------------3~------------------|
E|------------------3~---------------1~---------------------------------|

G|------------------------------------------------------------------------------------|
D|----------2/8---------------------------------------------------4/10----------------|
A|-1-1------------------4/10--------------2/8--------3-3------------------------------|
E|----------------3-3--------------1-1------------------------------------------------|

Order:
Intro/Verse (x7)
Pre-chorus (x1)
Chorus (x1)
Chorus 2 (x1)
Intro/Verse (x6)
Pre-chorus (x1)
Chorus (x1
Chorus 2 (x3) [First play slide A--3\0]
Bridge (x1)
Intro/Verse (x2) [Finish on A--3-5\0]

| /  slide up
| \  slide down
| h  hammer-on
| p  pull-off
| ~  vibrato
| +  harmonic
| x  Mute note
comments
print report bad tab
1 comment total.
0 reply
gtanick wrote on September 15 2013, 10:45 am

Pre chours are a bit wrong,
G|-----------------------------------------------|
D|-------------------5h7--5h7--5h7---7\3---------|
A|-----------------------------------------------|
E|-1 (x16)---55----55---55---55------------------|

this sounds better to me =) besides this, it's perfect, thanks for the tab

I want to post or [tab]
guest
You may want to rate the tab now too:
select rating
Please do not post tabs as comments. Select "correction" instead!