Oops, an error
Loading. Please wait.

Perm Bass Tab

version 1
version 1

Whole song

  • Based on the studio version: https://www.youtube.com/watch?v=ftXmvnL0ZOc.
  • This Tab will give you the main Bass Line for the ... Show more
181 views 87 this week
no commentswrite comment
1 2 3 4 5
x 3
add to favorites
launch autoscroll
font size
0
reset
guitar tuner
Autoscroll
slow
fast
+/-
esc
set tempo
stop
Help us to improve Ultimate-Guitar.com Take our survey!
×
Author
Difficulty
advanced
Listen to what the song does so that you understand the different musical elements the
bassist is using in the song.

Every tab is in line with the beat count (1e+a2e+a..) so you know exactly when to play what note.

Have fun! It's such a funky tune, how can you not ;)


[Verse A]

  1e+a2e+a3e+a4e+a1e+a2e+a3e+a4e+a
G|--------------------------------|
D|--------------------------------|
A|----1---------------1-----------|
E|3-----1-3-------3-3-----1-3-----| repeat x3

G|--------------------------------|
D|--------------------------------|
A|----3-----------5---3-----------|
E|3-----1-3---------------6---5---|


[Verse B]

Pop any note on the G string (octave of the previous note on the A string) to give it
that funky feel

  1e+a2e+a3e+a4e+a1e+a2e+a3e+a4e+a|1e+a2e+a3e+a4e+a1e+a2e+a3e+a4e+a
G|---5----------------------------|---5----------------------------|
D|----------------5-5---5---------|----------------5-5---5---------|
A|3-----6-------------------------|3-----6---------------------5-4-|
E|--------------------------------|--------------------------------|

G|---5----------------------------|---5----------------------------|
D|----------------5-5---5---------|--------------------------------|
A|3-----6-------------------------|3-----6---------5---3-----------|
E|--------------------------------|------------------------6---5---|

[Pre-chorus] same as [Verse A]

  1e+a2e+a3e+a4e+a1e+a2e+a3e+a4e+a
G|--------------------------------|
D|--------------------------------|
A|----1---------------1-----------|
E|3-----1-3-------3-3-----1-3-----| repeat x3

G|--------------------------------|
D|--------------------------------|
A|----3-----------5---3-----------|
E|3-----1-3---------------6---5---|

[Chorus]

Not to be confused, every tabbed fret with a '0' is a '10'. The beat count is
adjusted accordingly to the extra space the '0' takes.

  1e+a2e+a3e+a4e +a1e+a2 e+a3e+a4e+a|1e+a2e+a3e+a4e +a1e+a2 e+a3e+a4e+a
G|-----------------------789--------|-----------------------789-------|
D|-----------------8---10-----------|-----------------8---10----------|
A|----7--8--9--10-------------------|----7--8--9--10------------------|
E|8---------------------------------|8--------------------------------|

  1e+a2e+a3e+a4e +a1e+a2 e+a3e+a4e+a|1e+a2e+a3e+a4 e+ a1 e+a2e+a3e+a4e+a
G|-----------------------789--------|-----------------------------------|
D|-----------------8---10-----------|-----------------------------------|
A|----7--8--9--10-------------------|----7--8-9----8--------------------|
E|8---------------------------------|8----------810-10-10---8---6---5---|

[Verse A]

  1e+a2e+a3e+a4e+a1e+a2e+a3e+a4e+a
G|--------------------------------|
D|--------------------------------|
A|----1---------------1-----------|
E|3-----1-3-------3-3-----1-3-----| repeat x3

G|--------------------------------|
D|--------------------------------|
A|----3-----------5---3-----------|
E|3-----1-3---------------6---5---|


[Verse B]

Pop any note on the G string (octave of the previous note on the A string) to give it
that funky feel

  1e+a2e+a3e+a4e+a1e+a2e+a3e+a4e+a|1e+a2e+a3e+a4e+a1e+a2e+a3e+a4e+a
G|---5----------------------------|---5----------------------------|
D|----------------5-5---5---------|----------------5-5---5---------|
A|3-----6-------------------------|3-----6---------------------5-4-|
E|--------------------------------|--------------------------------|

G|---5----------------------------|---5----------------------------|
D|----------------5-5---5---------|--------------------------------|
A|3-----6-------------------------|3-----6---------5---3-----------|
E|--------------------------------|------------------------6---5---|

[Pre-chorus] same as [Verse A]

  1e+a2e+a3e+a4e+a1e+a2e+a3e+a4e+a
G|--------------------------------|
D|--------------------------------|
A|----1---------------1-----------|
E|3-----1-3-------3-3-----1-3-----| repeat x3

G|--------------------------------|
D|--------------------------------|
A|----3-----------5---3-----------|
E|3-----1-3---------------6---5---|

[Chorus]

Not to be confused, every tabbed fret with a '0' is a '10'. The beat count is
adjusted accordingly to the extra space the '0' takes.

  1e+a2e+a3e+a4e +a1e+a2 e+a3e+a4e+a|1e+a2e+a3e+a4e +a1e+a2 e+a3e+a4e+a
G|-----------------------789--------|-----------------------789-------|
D|-----------------8---10-----------|-----------------8---10----------|
A|----7--8--9--10-------------------|----7--8--9--10------------------|
E|8---------------------------------|8--------------------------------|

  1e+a2e+a3e+a4e +a1e+a2 e+a3e+a4e+a|1e+a2e+a3e+a4 e+ a1 e+a2e+a3e+a4e+a
G|-----------------------789--------|-----------------------------------|
D|-----------------8---10-----------|-----------------------------------|
A|----7--8--9--10-------------------|----7--8-9----8--------------------|
E|8---------------------------------|8----------810-10-10---8---6---5---|

  1...
G|----|
D|----|
A|----|
E|3---|

[Drum break (4 bars)]

[Bridge] same as [Verse A]

  1e+a2e+a3e+a4e+a1e+a2e+a3e+a4e+a
G|--------------------------------|
D|--------------------------------|
A|----1---------------1-----------|
E|3-----1-3-------3-3-----1-3-----| repeat x3

G|--------------------------------|
D|--------------------------------|
A|----3-----------5---3-----------|
E|3-----1-3---------------6---5---|
(repeat Bridge)

[Pre-chorus B]
  1e+a2e+a3e+a4e+a1e+a2e+a3e+a4e+a|1e+a2e+a3e+a4e+a1e+a2e+a3e+a4e+a
G|--------------------------------|--------------------------3-3---|
D|5-------------------------------|5-----------34-5----------------|
A|--------------------------------|--------------------------------|
E|--------------------------------|--------------------------------|
  1e+a2e+a3e+a4e+a1e+a2e+a3e+a4e+a|1e+a2e+a3e+a4e+a1e+a2e+a3e+a4e+a
G|--------------------------------|--------------------------------|
D|5-------------------------------|5-------------------------------|
A|--------------------------------|----------------5---3-----------|
E|--------------------------------|------------------------6---5---|

[Chorus]

Not to be confused, every tabbed fret with a '0' is a '10'. The beat count is
adjusted accordingly to the extra space the '0' takes.

  1e+a2e+a3e+a4e +a1e+a2 e+a3e+a4e+a|1e+a2e+a3e+a4e +a1e+a2 e+a3e+a4e+a
G|-----------------------789--------|-----------------------789-------|
D|-----------------8---10-----------|-----------------8---10----------|
A|----7--8--9--10-------------------|----7--8--9--10------------------|
E|8---------------------------------|8--------------------------------|

  1e+a2e+a3e+a4e +a1e+a2 e+a3e+a4e+a|1e+a2e+a3e+a4 e+ a1 e+a2e+a3e+a4e+a
G|-----------------------789--------|-----------------------------------|
D|-----------------8---10-----------|-----------------------------------|
A|----7--8--9--10-------------------|----7--8-9----8--------------------|
E|8---------------------------------|8----------810-10-10---8---6---5---|

[Outro]

  1...
G|----|
D|----|
A|----|
E|3---|


************************************
Suggest correction
Give kudos to tab author, rate the tab!
1 2 3 4 5
comments
print report bad tab
guest
You may want to rate the tab now too:
select rating
Wanna post a correction for this tab? Suggest correction