Oops, an error
Loading. Please wait.

Perm Bass Tab

version 2
version 2

Whole song

  • Based on the studio version: https://www.youtube.com/watch?v=ftXmvnL0ZOc.
  • This Tab will give you the main Bass Line for the ... Show more
73 views 36 this week
no commentswrite comment
1 2 3 4 5
1 last vote to show rating
add to favorites
launch autoscroll
font size
0
reset
guitar tuner
Autoscroll
slow
fast
+/-
esc
set tempo
stop
Help us to improve Ultimate-Guitar.com Take our survey!
×
Author
Difficulty
intermediate
About this tab version
This Tab will give you the main Bass Line for the song, as well as the other parts to the entire song if you wish to know how it is all played. My band loves these types of tabs so I understand. Was this info helpful? Yes No
The order of Verse and Chorus is a little tricky because of the two different verse and chorus', as well as
two bridges. Here is the order...



[Verse 1]

G|---------------------------------------------------------------------------|
D|---------------------------------------------------------------------------|
A|-----3--------3--------3--------3--------3--------3--------3-----5-3-------|
E|--3-6--3--33-6--3---3-6--3--33-6--3---3-6--3--33-6--3---3-6--3--3----6-5---|


[Chorus 1]

G|----------------------------------------------------------------|
D|---------5-5-5---------5-5-5------------5-5-5-------------------|
A|--3-3-6---------3-3-6--------653-3-3-6---------3-3-6--5-3-------|
E|----------------------------------------------------------6-5---|


[Verse 2]

G|-------------------------------------------------------------------------|
D|-------------------------------------------------------------------------|
A|----1--------1-------1--------1-------1--------1-------1-------5-3-------|
E|--3--1-3--33--1-3--3--1-3--33--1-3--3--1-3--33--1-3--3--1-3--3-----6-5---|


[Chorus 2]

G|----------------------8-9--|   -----------------------------|
D|-------------8--10-12------|3x --------8-8h10p8-------------|
A|----7-8-9-10---------------|   ----7-8----------------------|
E|--8------------------------|   --8--------------10-8-6-5----|


[Verse 3]

G|-------------------------------------------------------------------------|
D|-------------------------------------------------------------------------|
A|----1--------1-------1--------1-------1--------1-------1-------5-3-------|
E|--3--1-3--33--1-3--3--1-3--33--1-3--3--1-3--33--1-3--3--1-3--3-----6-5---|


[Chorus 3]

G|----------------------------------------------------------------|
D|---------5-5-5---------5-5-5------------5-5-5-------------------|
A|--3-3-6---------3-3-6--------653-3-3-6---------3-3-6--5-3-------|
E|----------------------------------------------------------6-5---|


[Verse 4]

G|-------------------------------------------------------------------------|
D|-------------------------------------------------------------------------|
A|----1--------1-------1--------1-------1--------1-------1-------5-3-------|
E|--3--1-3--33--1-3--3--1-3--33--1-3--3--1-3--33--1-3--3--1-3--3-----6-5---|


[Chorus 4]

G|----------------------8-9--|   -----------------------------|
D|-------------8--10-12------|3x --------8-8h10p8-------------|
A|----7-8-9-10---------------|   ----7-8----------------------|
E|--8------------------------|   --8--------------10-8-6-5----|


[Bridge 1]

G|-------------------------------------------------------------------------|
D|-------------------------------------------------------------------------|
A|----1--------1-------1--------1-------1--------1-------1-------5-3-------|
E|--3--1-3--33--1-3--3--1-3--33--1-3--3--1-3--33--1-3--3--1-3--3-----6-5---|

[Bridge 2]

G|-------------------------------------------------|
D|--------------------8-8h10p8---------------------|
A|--10---10---89-10------------10---10-------------|
E|---------------------------------------10-8-6-5--|


[Outro]

G|----------------------8-9--|   -----------------------------|
D|-------------8--10-12------|3x --------8-8h10p8-------------|
A|----7-8-9-10---------------|   ----7-8----------------------|
E|--8------------------------|   --8--------------10-8-6-5-3--|

***********************************

| h   Hammer-on
| p   Pull-off

***********************************
Suggest correction
Give kudos to tab author, rate the tab!
1 2 3 4 5
comments
print report bad tab
guest
You may want to rate the tab now too:
select rating
Wanna post a correction for this tab? Suggest correction