Oops, an error
Loading. Please wait.

Runaway Baby tab

version 1
version 1

Whole song

Interactive

190,206 views 231 this week
4 commentsread comments
1 2 3 4 5
x 49
add to favorites
×
Save as Personal and add changes to this tab that will be seen only by you. Learn more ›
×
You can save this tab as Personal to edit and correct it or add notes. All changes will be seen only by you. Learn more »
launch autoscroll
font size
0
reset
how to read this tab
guitar tuner
backing track
0:00
0:00
edit
Autoscroll
slow
fast
+/-
esc
set tempo
stop
Author
[RIFF - INTRO + VERSE 1 + BRIDGE]
E --------------------------------|
B --------------------------------|
G ---8--6-8-----------------------|
D ----------7-6--6----6-8-6-------|
A 6-----------------9-------9-6---|
E --------------------------------| Repeat


RIFF - PRECHORUS + BRIDGE (for 2nd Guitar)
E ---11--9-11-------------------------|
B ------------11-9--9-----9-11-9------|
G 8--------------------11--------11-8-|
D ------------------------------------|
A ------------------------------------|
E ------------------------------------| Repeat


[RIFF - VERSE 2]
E ----------------------|
B ----------------------|
G ----------------------|
D -------------4-4-6----|
A --4-5-6----6----------|
E 6---------------------| Repeat


[2nd GUITAR - VERSE 2]
E ----------------------|
B ----------11--11------|
G ----------11--11------|
D ----------------------|
A ----------------------|
E ----------------------| Repeat



[1st GUITAR - CHORUS]
Plays chords
B | A# | D#m | G# |
B | A# | D#m | G# |
B | A# | D#m | G# |
B | A# | into verse riff


[2nd GUITAR - CHORUS]
Run Run Runaway Runaway Baby
E -11-11-11-11-11-11-11-11-|-10-10-10-10-10-10-10-10-|
B -12-12-12-12-12-12-12-12-|-11-11-11-11-11-11-11-11-|
G -11-11-11-11-11-11-11-11-|-10-10-10-10-10-10-10-10-|
D -------------------------|-------------------------|
A -------------------------|-------------------------|
E -------------------------|-------------------------|

Before I put my spell on you..... You'd better
E -11-11-11-11-11-11-11-11-|-11---11---11------------|
B -11-11-11-11-11-11-11-11-|-13---13---13------------|
G -11-11-11-11-11-11-11-11-|-13---13---13------------|
D -------------------------|-------------------------|
A -------------------------|-------------------------|
E -------------------------|-------------------------|

Get Get Getaway Getaway Darling
E -11-11-11-11-11-11-11-11-|-10-10-10-10-10-10-10-10-|
B -12-12-12-12-12-12-12-12-|-11-11-11-11-11-11-11-11-|
G -11-11-11-11-11-11-11-11-|-10-10-10-10-10-10-10-10-|
D -------------------------|-------------------------|
A -------------------------|-------------------------|
E -------------------------|-------------------------|

Cos everything you heard is true.... Your poor little
E -11-11-11-11-11-11-11-11-|-11---11---11------------|
B -11-11-11-11-11-11-11-11-|-13---13---13------------|
G -11-11-11-11-11-11-11-11-|-13---13---13------------|
D -------------------------|-------------------------|
A -------------------------|-------------------------|
E -------------------------|-------------------------|

Heart will end up alone....... Cos Lord
E -11-11-11-11-11-11-11-11-|-10-10-10-10-10-10-10-10-|
B -12-12-12-12-12-12-12-12-|-11-11-11-11-11-11-11-11-|
G -11-11-11-11-11-11-11-11-|-10-10-10-10-10-10-10-10-|
D -------------------------|-------------------------|
A -------------------------|-------------------------|
E -------------------------|-------------------------|

Knows I'm a rolling stone............So you'd better
E -11-11-11-11-11-11-11-11-|-11---11---11------------|
B -11-11-11-11-11-11-11-11-|-13---13---13------------|
G -11-11-11-11-11-11-11-11-|-13---13---13------------|
D -------------------------|-------------------------|
A -------------------------|-------------------------|
E -------------------------|-------------------------|

Run Run Runaway Runaway Baby
E -11----11----11----11----|-10----------------------|
B -12----12----12----12----|-11----------------------|
G -11----11----11----11----|-10----------------------|
D -------------------------|-------------------------|
A -------------------------|-------------------------|
E -------------------------|-------------------------|


[3rd GUITAR - final chorus], from the words
Heart will end up alone....... Cos Lord
E -------------------------|-------------------------|
B -------------------------|-------------------------|
G -------------------------|-------------------------|
D -------13-13-16-16-13-13-|-------12-12-15-15-12-12-|
A -14-14-------------------|-13-13-------------------|
E -------------------------|-------------------------|

Knows I'm a rolling stone............So you'd better
E -------------------------|-------------------------|
B -------------11-11-------|-------------------------|
G -------11-11-------11-11-|-------------------------|
D -13-13-------------------|-------10-10-13-13-10-10-|
A -------------------------|-11-11-------------------|
E -------------------------|-------------------------|

Run Run Runaway               Runaway Baby
E -------------------------|-------------------------|----|
B -------------------------|-------------------------|----|
G -------------------------|--------------------6--7-|--8-|
D --9-----9-----9-----9----|--8--------------8-------|----|
A -------------------------|-------------------------|----|
E -------------------------|-------------------------|----|


C-H-O-R-D-S
VERSE + PRECHORUS + BRIDGE
D#m | G# (repeat)

CHORUS
B | A# | D#m | G# |
B | A# | D#m | G# |
B | A# | D#m | G# |
B | A# | into verse riff

            
            
Suggest correction
Creating personal tab
Creating personal tab
You can edit any tab online and save it as your Personal.

You can edit, replace or remove any tab part or add personal notes – all changes will be seen only by you.

Personal tabs can be accessed anytime from any device, even offline.
Learn more »
comments
print report bad tab
4 comments total. Showing first comments.
+1 reply
cornela1 40 Feb 28, 2011 10:09 PM

Didn't play it yet, looks good though!

+4 reply
Pir8 Pablo 52 May 20, 2011 11:12 AM

Very good tab, although one slight correction I could suggest would be to flatten the 5th note of each repeat of the riff so it becomes this.


E --------------------------------|
B --------------------------------|
G ---8--6-8-----------------------|
D ----------7-6--6----6-8-6-------|
A 6-----------------9-------9-6---|
E --------------------------------|

E ---11--9-11-------------------------|
B ------------10-9--9-----9-11-9------|
G 8--------------------11--------11-8-|
D ------------------------------------|
A ------------------------------------|
E ------------------------------------|

Otherwise, well done.

0 reply
MichaelScarn 50 Mar 21, 2014 09:54 PM

(For opening riff) This should be Guitar 1 and it should be tuned down a half step

d# --------------------------------||
A# --------------------------------||
F# --------------------------------||
C# -----2--0-2---------------------||
G# ------------2-0-0-----0-2-0-----||
D# ---0----------------3-------3---||

And then Guitar 2 should be what you have listed for Guitar 1 but just tune down and play accordingly

other than that the tab is pretty solid

guest
You may want to rate the tab now too:
select rating
Wanna post a correction for this tab? Suggest correction