Oops, an error
Loading. Please wait.

Runaway Baby Bass Tab

version 2
version 2

Whole song

Interactive

76,102 views 243 this week
5 commentsread comments
1 2 3 4 5
x 29
add to favorites
launch autoscroll
font size
0
reset
guitar tuner
Autoscroll
slow
fast
+/-
esc
set tempo
stop
Help us to improve Ultimate-Guitar.com Take our survey!
×
Author
Difficulty
novice
[Intro and Verse 1]

G|------8-6-8------------------------------------------------------------------|
D|--------------7-6-6-------6-8-6----------------------------------------------|
A|---6-----------------9------------9------------------------------------------|
E|-----------------------------------------------------------------------------|


[Chorus]

G|-----------------------------------------------------------------------------------------------|
D|-----------------------------------------------------------------------------------------------|
A|---------------------------6-6-6-6-6-6-6-6-----------------------------------------------------|
E|77777777--6-6-6-6-6-6-6-6--------------------4-4-4-4-4-4-4-4-----------------------------------|

End Of Chorus

G|--------------------------------------------------------------------------|
D|--------------------------------------------------------------------------|
A|----------6---------------------------------------------------------------|
E|-7-7-7-7------------------------------------------------------------------|


[Verse 2]

G|------------------------------------------------------------------------------|
D|------------4-5-6-------------------------------------------------------------|
A|---4-5-6--6-------------------------------------------------------------------|
E|-6----------------------------------------------------------------------------|
Suggest correction
comments
print report bad tab
5 comments total. Showing first comments.
0 reply
MusicMan24 1,114 Feb 09, 2011 11:21 PM

F*ucking perfect tab man! Cheers!

0 reply
rolland.arriza 52 Nov 18, 2013 08:52 AM

i think there must be hammer ons and pull offs.

0 reply
BlackWolf24 274 Feb 16, 2014 01:33 PM, edited at 01:36 pm

The second Chorus is one octave higher

guest
You may want to rate the tab now too:
select rating
Wanna post a correction for this tab? Suggest correction