Oops, an error
Loading. Please wait.

Runaway Baby Tab

version 2
version 2

Whole song

Interactive

6,790 views 6 this week
2 commentsread comments
1 2 3 4 5
please rate
add to favorites
launch autoscroll
font size
0
reset
how to read this tab
guitar tuner
Autoscroll
slow
fast
+/-
esc
set tempo
stop
Help us to improve Ultimate-Guitar.com Take our survey!
×
Difficulty
Tuning
intermediate
D# G# C# F# A# D#
Tab By Harrison A.E. Hill
Email: 4ever.manutdhh@gmail.com
 PLAYED HALF STEP DOWN


INTRO/VERSE :

e --------------------------------||
B --------------------------------||
G --------------------------------||
D -----2--0-2---------------------||       Repeat: 5x
A ------------2-0-0-----0-2-0-----||
E ---0----------------3-------3---||
Ah yes
Well, look at here, look at here
Ah, what do we have?
Another pretty thang ready for me to grab

But little does she know
That I'm a wolf in sheep's clothing

e -------------------||
B -------------------||
G -------------------||
D -----2--0-2--------||
A ------------2-0----||
E ---0---------------||
'Cause at the end of the night
It is her I'll be holding

PRE CHORUS:


e----0---0--------------------------------------||
B -------3--0---------0-------------------------||
G -----------2-2--0-2---2-0---------------------||
D -2--------------------------||        Repeat--|| 3x
A ----------------------------------------------||
E ----------------------------------------------||
I love you so
That's what you'll say
You'll tell me
Baby, baby, please don't go away
But when I play, I never stay


e -----0---0---------||
B -------3---0-------||
G -------------2-----||
D --2----------------||
A -------------------||
E -------------------||
To every girl that I meet here
This is what I say


CHORUS:

B.Maj                       A.Maj
Run, run, runaway, runaway, baby
     E.Maj                             F.Maj
Before I put my spell on you
                 B.Maj                     A.Maj
You better get, get, getaway, getaway, darling
        E.Maj                                        F.Maj
'Cause everything you heard is true
                        B.Maj                             A.Maj
Your poor little heart will end up alone
                 E.Maj                              F.Maj
'Cause what knows I'm a rolling stone
                   B.Maj 4x                         A.Maj
So you better run, run, runaway, runaway, baby

PLAY INTRO 2x

Ah yeah


VERSE:


e-----------------------------||
B-----------------------5--5--||
G-----------------------------||
D-----------------------2--2--||          Repeat: 3x
A--------------0--0--0--------||
E--0--0--0-3-4----------------||
Well, let me think, let me think
Ah, what should I do?
So many eager young bunny's
That I'd like to pursue

Now even now they eating out
The palm of my hand


e----------------||
B----------------||
G----------------||
D----------------||
A--------------0-||
E--0--0--0-3-4---||

There's only one carrot
And they all gotta share it


PRE CHORUS:


e----0---0--------------------------------------||
B -------3--0---------0-------------------------||
G -----------2-2--0-2---2-0---------------------||
D -2--------------------------||        Repeat--|| 3x
A ----------------------------------------------||
E ----------------------------------------------||
I love you so
That's what you'll say
You'll tell me
Baby, baby, please don't go away
But when I play, I never stay


e -----0---0---------||
B -------3---0-------||
G -------------2-----||
D --2----------------||
A -------------------||
E -------------------||
To every girl that I meet here
This is what I say


CHORUS:

B.Maj                       A.Maj
Run, run, runaway, runaway, baby
     E.Maj                             F.Maj
Before I put my spell on you
                 B.Maj                     A.Maj
You better get, get, getaway, getaway, darling
        E.Maj                                        F.Maj
'Cause everything you heard is true
                        B.Maj                             A.Maj
Your poor little heart will end up alone
                 E.Maj                              F.Maj
'Cause what knows I'm a rolling stone
                   B.Maj 4x                         A.Maj
So you better run, run, runaway, runaway, baby


PLAY INTRO 2x


BRIDGE:

e----0---0--------------------------------------||
B -------3--0---------0-------------------------||
G -----------2-2--0-2---2-0---------------------||
D -2--------------------------||        Repeat--|| 4x
A ----------------------------------------------||
E ----------------------------------------------||
See I ain't try to hurt you, baby
No, no, no, I just wanna work you, baby, yup, yup
See I ain't try to hurt you, baby
No, no, no, I just wanna work you, baby

If you scared you better run
You better run

e -----0---0---------||
B -------3---0-------||
G -------------2-----||
D --2----------------||
A -------------------||
E -------------------||
, you better run
You better, you better, you better



CHORUS:

B.Maj                       A.Maj
Run, run, runaway, runaway, baby
     E.Maj                             F.Maj
Before I put my spell on you
                 B.Maj                     A.Maj
You better get, get, getaway, getaway, darling
        E.Maj                                        F.Maj
'Cause everything you heard is true
                        B.Maj                             A.Maj
Your poor little heart will end up alone
                 E.Maj                              F.Maj
'Cause what knows I'm a rolling stone
                   B.Maj 4x                         A.Maj
So you better run, run, runaway, runaway, baby


THIS IS MY VERY FIRST TAB PLZ RATE HOPE YOU ALL LIKE IT!
Suggest correction
Give kudos to tab author, rate the tab!
1 2 3 4 5
comments
print report bad tab
2 comments total.
0 reply
Sto-ned Lama 41 wrote on May 7 2013, 05:54 am

chorus is off and needs to be changed :/

0 reply
geoffbaz 41 wrote on March 16 2014, 07:12 pm

Intro

D----2-0-2----------------------
A----------2--0-0--0-2-0--------
E--0---------------------3-0----

guest
You may want to rate the tab now too:
select rating
Wanna post a correction for this tab? Suggest correction