Oops, an error
Loading. Please wait.

Thats What I Like tab

version 2
version 2

Whole song

  • Fully structured tab with song timings. Easy to follow.
  • Though guitar doesn't appear in the studio recordi... Show more

Video

  • High quality video lesson with on screen tab, easy to follow.
  • This is an depth video guitar lesson for That's Wh... Show more
703 views 33 this week
no commentswrite comment
1 2 3 4 5
2 more votes to show rating
add to favorites
×
Save as Personal and add changes to this tab that will be seen only by you. Learn more ›
×
You can save this tab as Personal to edit and correct it or add notes. All changes will be seen only by you. Learn more »
launch autoscroll
font size
0
reset
how to read this tab
guitar tuner
edit
Autoscroll
slow
fast
+/-
esc
set tempo
stop
Author
Difficulty
About this tab version
Though guitar doesn't appear in the studio recording of That's What I Like, this guitar tab was designed to follow the main instruments to give you a full sound through the song. The chords in this tab are formed by a combination of the synthesizers and bass walks in the recorded version of the song. For a tutorial explaining the parts in this tab, visit the following YouTube link: https://www.youtube.com/watch?v=jT40kidkla0. Was this info helpful? Yes No
Though guitar doesn't appear in the studio recording of That's What I Like, this guitar tab was 
designed to follow the main instruments to give you a full sound through the song. The chords in
this tab are formed by a combination of the synthesizers and bass walks in the recorded version of
the song.


For a tutorial explaining the parts in this tab, visit the YouTube link below:

https://www.youtube.com/watch?v=jT40kidkla0


Enjoy!



[Intro]

    Eb7sus2
    1 e + a 2 e + a 3 e + a 4 e + a
e|--6-------6-------6----------------|
b|--6-------6-------6----------------|
G|--6-------6-------6----------------|
D|--8-------8-------8----------------|
A|--6-------6-------6----------------|
E|-----------------------------------|


[Verse 1] x2

    Eb7sus2
    1 e + a 2 e + a 3 e + a 4 e + a
e|--6-----------6-----------6--------|
b|--6-----------6-----------6--------|
G|--6-----------6-----------6--------|
D|--8-----------8-----------8--------|
A|--6-----------6-----------6--------|
E|-----------------------------------|


    Ebm9no5     Ebm7no5
    1 e + a 2 e + a 3 e + a 4 e + a
e|-----------------------------------|
b|--6-----------4-----------4--------|
G|--6-----------6-----------6--------|
D|--4-----------4-----------4--------|
A|--6-----------6-----------6--------|
E|-----------------------------------|


    G#/C
    1 e + a 2 e + a 3 e + a 4 e + a
e|--8-----------8-----------8--------|
b|--9-----------9-----------9--------|
G|--8-----------8-----------8--------|
D|--10----------10----------10-------|
A|--11----------11----------11-------|
E|--8-----------8-----------8--------|


    Bb7sus4                 Bb7
    1 e + a 2 e + a 3 e + a 4 e + a
e|--6-----------6-----------6--------|
b|--6-----------6-----------6--------|
G|--8-----------8-----------7--------|
D|--6-----------6-----------6--------|
A|--8-----------8-----------8--------|
E|--6-----------6-----------6--------|


[Pre-Chorus]

    Eb7sus2     G#7
    1 e + a 2 e + a 3 e + a 4 e + a
e|--6-----------4--------------------|
b|--6-----------4--------------------|
G|--6-----------5--------------------|
D|--8-----------4--------------------|
A|--6-----------6--------------------|
E|--------------4--------------------|

    G#m7        Bbm7
    1 e + a 2 e + a 3 e + a 4 e + a
e|--4-----------6--------------------|
b|--4-----------6--------------------|
G|--4-----------6--------------------|
D|--4-----------6--------------------|
A|--6-----------8--------------------|
E|--4-----------6--------------------|

    Eb7sus2     G#7
    1 e + a 2 e + a 3 e + a 4 e + a
e|--6-----------4--------------------|
b|--6-----------4--------------------|
G|--6-----------5--------------------|
D|--8-----------4--------------------|
A|--6-----------6--------------------|
E|--------------4--------------------|

    Bbm7    Fm7     FaugaddG#  
    1 e + a 2 e + a 3 e + a 4 e + a
e|--6-------8------------------------|
b|--6-------9-------9-9--------------|
G|--6-------8-------6-6--------------|
D|--6-------10------7-7--------------|
A|--8-------8-------8-8--------------|
E|--6--------------------------------|


[Chorus 1]

    Eb7sus2
    1 e + a 2 e + a 3 e + a 4 e + a
e|--6-----------6--------------------|
b|--6-----------6--------------------|
G|--6-----------6--------------------|
D|--8-----------8--------------------|
A|--6-----------6--------------------|
E|-----------------------------------|

    Ebm9no5     Ebm7no5
    1 e + a 2 e + a 3 e + a 4 e + a
e|-----------------------------------|
b|--6-----------4--------------------|
G|--6-----------6--------------------|
D|--4-----------4--------------------|
A|--6-----------6--------------------|
E|-----------------------------------|

    G#/C
    1 e + a 2 e + a 3 e + a 4 e + a
e|--8-----------8--------------------|
b|--9-----------9--------------------|
G|--8-----------8--------------------|
D|--10----------10-------------------|
A|--11----------11-------------------|
E|--8-----------8--------------------|

    Bb7sus4                 
    1 e + a 2 e + a 3 e + a 4 e + a
e|--6-----------6--------------------|
b|--6-----------6--------------------|
G|--8-----------8--------------------|
D|--6-----------6--------------------|
A|--8-----------8--------------------|
E|--6-----------6--------------------|

    Eb7sus2
    1 e + a 2 e + a 3 e + a 4 e + a
e|--6-----------6-----------6--------|
b|--6-----------6-----------6--------|
G|--6-----------6-----------6--------|
D|--8-----------8-----------8--------|
A|--6-----------6-----------6--------|
E|-----------------------------------|

    Ebm9no5     Ebm7no5
    1 e + a 2 e + a 3 e + a 4 e + a
e|-----------------------------------|
b|--6-----------4-----------4--------|
G|--6-----------6-----------6--------|
D|--4-----------4-----------4--------|
A|--6-----------6-----------6--------|
E|-----------------------------------|

    G#/C
    1 e + a 2 e + a 3 e + a 4 e + a
e|--8-----------8-----------8--------|
b|--9-----------9-----------9--------|
G|--8-----------8-----------8--------|
D|--10----------10----------10-------|
A|--11----------11----------11-------|
E|--8-----------8-----------8--------|

    Bbm7    Fm7     Ebm7    C#maj7/G#   
    1 e + a 2 e + a 3 e + a 4 e + a
e|--6-------8-------6-------4------------|
b|--6-------9-------7-------6------------|
G|--6-------8-------6-------5------------|
D|--6-------10------8-------6------------|
A|--8-------8-------6--------------------|
E|--6------------------------------------|


[Verse 2]

    Eb7sus2
    1 e + a 2 e + a 3 e + a 4 e + a
e|--6-----------6-----------6--------|
b|--6-----------6-----------6--------|
G|--6-----------6-----------6--------|
D|--8-----------8-----------8--------|
A|--6-----------6-----------6--------|
E|-----------------------------------|

    Ebm9no5     Ebm7no5
    1 e + a 2 e + a 3 e + a 4 e + a
e|-----------------------------------|
b|--6-----------4-----------4--------|
G|--6-----------6-----------6--------|
D|--4-----------4-----------4--------|
A|--6-----------6-----------6--------|
E|-----------------------------------|

    G#/C
    1 e + a 2 e + a 3 e + a 4 e + a
e|--8-----------------------8--------|
b|--9-----------------------9--------|
G|--8-----------------------8--------|
D|--10----------------------10-------|
A|--11----------------------11-------|
E|--8-----------------------8--------|

    Bb7sus4                   Eb7sus2
    1 e + a 2 e + a 3 e + a 4 e + a
e|--6-----------6-------------6-6-6--|
b|--6-----------6-------------6-6-6--|
G|--8-----------8-------------6-6-6--|
D|--6-----------6-------------8-8-8--|
A|--8-----------8-------------6-6-6--|
E|--6-----------6--------------------|

    Eb7sus2
    1 e + a 2 e + a 3 e + a 4 e + a
e|--6-----------6-----------6--------|
b|--6-----------6-----------6--------|
G|--6-----------6-----------6--------|
D|--8-----------8-----------8--------|
A|--6-----------6-----------6--------|
E|-----------------------------------|

    Ebm9no5     Ebm7no5
    1 e + a 2 e + a 3 e + a 4 e + a
e|-----------------------------------|
b|--6-----------4-----------4--------|
G|--6-----------6-----------6--------|
D|--4-----------4-----------4--------|
A|--6-----------6-----------6--------|
E|-----------------------------------|

    G#/C
    1 e + a 2 e + a 3 e + a 4 e + a
e|--8-----------8-----------8--------|
b|--9-----------9-----------9--------|
G|--8-----------8-----------8--------|
D|--10----------10----------10-------|
A|--11----------11----------11-------|
E|--8-----------8-----------8--------|

    Bb7sus4                 Bb7
    1 e + a 2 e + a 3 e + a 4 e + a
e|--6-----------6-----------6--------|
b|--6-----------6-----------6--------|
G|--8-----------8-----------7--------|
D|--6-----------6-----------6--------|
A|--8-----------8-----------8--------|
E|--6-----------6-----------6--------|


[Pre-Chorus 2]

    Eb7sus2     G#7
    1 e + a 2 e + a 3 e + a 4 e + a
e|--6-----------4--------------------|
b|--6-----------4--------------------|
G|--6-----------5--------------------|
D|--8-----------4--------------------|
A|--6-----------6--------------------|
E|--------------4--------------------|

    G#m7        Bbm7
    1 e + a 2 e + a 3 e + a 4 e + a
e|--4-----------6--------------------|
b|--4-----------6--------------------|
G|--4-----------6--------------------|
D|--4-----------6--------------------|
A|--6-----------8--------------------|
E|--4-----------6--------------------|

    Eb7sus2     G#7
    1 e + a 2 e + a 3 e + a 4 e + a
e|--6-----------4--------------------|
b|--6-----------4--------------------|
G|--6-----------5--------------------|
D|--8-----------4--------------------|
A|--6-----------6--------------------|
E|--------------4--------------------|

    Bbm7    Fm7     FaugaddG#  
    1 e + a 2 e + a 3 e + a 4 e + a
e|--6-------8------------------------|
b|--6-------9-------9-9--------------|
G|--6-------8-------6-6--------------|
D|--6-------10------7-7--------------|
A|--8-------8-------8-8--------------|
E|--6--------------------------------|


[Chorus 2]

    Eb7sus2
    1 e + a 2 e + a 3 e + a 4 e + a
e|--6-----------6--------------------|
b|--6-----------6--------------------|
G|--6-----------6--------------------|
D|--8-----------8--------------------|
A|--6-----------6--------------------|
E|-----------------------------------|

    Ebm9no5     Ebm7no5
    1 e + a 2 e + a 3 e + a 4 e + a
e|-----------------------------------|
b|--6-----------4--------------------|
G|--6-----------6--------------------|
D|--4-----------4--------------------|
A|--6-----------6--------------------|
E|-----------------------------------|

    G#/C
    1 e + a 2 e + a 3 e + a 4 e + a
e|--8-----------8--------------------|
b|--9-----------9--------------------|
G|--8-----------8--------------------|
D|--10----------10-------------------|
A|--11----------11-------------------|
E|--8-----------8--------------------|

    Bb7sus4                 
    1 e + a 2 e + a 3 e + a 4 e + a
e|--6-----------6--------------------|
b|--6-----------6--------------------|
G|--8-----------8--------------------|
D|--6-----------6--------------------|
A|--8-----------8--------------------|
E|--6-----------6--------------------|

    Eb7sus2
    1 e + a 2 e + a 3 e + a 4 e + a
e|--6-----------6-----------6--------|
b|--6-----------6-----------6--------|
G|--6-----------6-----------6--------|
D|--8-----------8-----------8--------|
A|--6-----------6-----------6--------|
E|-----------------------------------|

    Ebm9no5     Ebm7no5
    1 e + a 2 e + a 3 e + a 4 e + a
e|-----------------------------------|
b|--6-----------4-----------4--------|
G|--6-----------6-----------6--------|
D|--4-----------4-----------4--------|
A|--6-----------6-----------6--------|
E|-----------------------------------|

    G#/C
    1 e + a 2 e + a 3 e + a 4 e + a
e|--8-----------8-----------8--------|
b|--9-----------9-----------9--------|
G|--8-----------8-----------8--------|
D|--10----------10----------10-------|
A|--11----------11----------11-------|
E|--8-----------8-----------8--------|

    Bbm7    Fm7     Ebm7    C#maj7/G#   
    1 e + a 2 e + a 3 e + a 4 e + a
e|--6-------8-------6-------4------------|
b|--6-------9-------7-------6------------|
G|--6-------8-------6-------5------------|
D|--6-------10------8-------6------------|
A|--8-------8-------6--------------------|
E|--6------------------------------------|


[Bridge]

    F#maj7      F#maj7/Eb
    1 e + a 2 e + a 3 e + a 4 e + a
e|-----------------------------------|
b|--11----------11-------------------|
G|--10----------10-------------------|
D|--11----------11-------------------|
A|--9-----------x--------------------|
E|--------------11-------------------|

    G#/C        Bbsus4/F      Bb/F
    1 e + a 2 e + a 3 e + a 4 e + a
e|--8--------------------------------|
b|--9-----------6-----------6--------|
G|--8-----------8-----------7--------|
D|--10----------8-----------8--------|
A|--11----------8-----------8--------|
E|--8--------------------------------|

    F#maj7      F#maj7/Eb
    1 e + a 2 e + a 3 e + a 4 e + a
e|-----------------------------------|
b|--11----------11-------------------|
G|--10----------10-------------------|
D|--11----------11-------------------|
A|--9-----------x--------------------|
E|--------------11-------------------|

    G#/C        G#m7no5     C#7/G#
    1 e + a 2 e + a 3 e + a 4 e + a
e|--8--------------------------------|
b|--9-----------9-----------9--------|
G|--8-----------11----------10-------|
D|--10----------9-----------9--------|
A|--11----------11----------11-------|
E|--8--------------------------------|

    F#maj7      F7
    1 e + a 2 e + a 3 e + a 4 e + a
e|--------------8--------------------|
b|--11----------10-------------------|
G|--10----------8--------------------|
D|--11----------10-------------------|
A|--9-----------8--------------------|
E|-----------------------------------|

    F   F#7 G#7 Adim        Bbm
    1 e + a 2 e + a 3 e + a 4 e + a
e|-----------------------------------|
b|--10--11--13--13----------14-------|
G|--10--9---11--11----------15-------|
D|--10--11--13--13----------15-------|
A|--8---9---11--12----------13-------|
E|-----------------------------------|

    Eb7sus2           FaugaddG# Eb7sus2
    1 e + a 2 e + a 3 e + a 4 e + a
e|-----------------------------------|
b|--6-----------6-----------9---6----|
G|--6-----------6-----------6---6----|
D|--8-----------8-----------7---8----|
A|--6-----------6-----------8---6----|
E|-----------------------------------|

    Bbm7    Fm7     FaugaddG#  
    1 e + a 2 e + a 3 e + a 4 e + a
e|--6-------8------------------------|
b|--6-------9-------9-9--------------|
G|--6-------8-------6-6--------------|
D|--6-------10------7-7--------------|
A|--8-------8-------8-8--------------|
E|--6--------------------------------|


[Chorus 3]

    Eb7sus2
    1 e + a 2 e + a 3 e + a 4 e + a
e|--6-----------6--------------------|
b|--6-----------6--------------------|
G|--6-----------6--------------------|
D|--8-----------8--------------------|
A|--6-----------6--------------------|
E|-----------------------------------|

    Ebm9no5     Ebm7no5
    1 e + a 2 e + a 3 e + a 4 e + a
e|-----------------------------------|
b|--6-----------4--------------------|
G|--6-----------6--------------------|
D|--4-----------4--------------------|
A|--6-----------6--------------------|
E|-----------------------------------|

    G#/C
    1 e + a 2 e + a 3 e + a 4 e + a
e|--8-----------8--------------------|
b|--9-----------9--------------------|
G|--8-----------8--------------------|
D|--10----------10-------------------|
A|--11----------11-------------------|
E|--8-----------8--------------------|

    Bb7sus4                 
    1 e + a 2 e + a 3 e + a 4 e + a
e|--6-----------6--------------------|
b|--6-----------6--------------------|
G|--8-----------8--------------------|
D|--6-----------6--------------------|
A|--8-----------8--------------------|
E|--6-----------6--------------------|

    Eb7sus2
    1 e + a 2 e + a 3 e + a 4 e + a
e|--6-----------6-----------6--------|
b|--6-----------6-----------6--------|
G|--6-----------6-----------6--------|
D|--8-----------8-----------8--------|
A|--6-----------6-----------6--------|
E|-----------------------------------|

    Ebm9no5     Ebm7no5
    1 e + a 2 e + a 3 e + a 4 e + a
e|-----------------------------------|
b|--6-----------4-----------4--------|
G|--6-----------6-----------6--------|
D|--4-----------4-----------4--------|
A|--6-----------6-----------6--------|
E|-----------------------------------|

    G#/C
    1 e + a 2 e + a 3 e + a 4 e + a
e|--8-----------8-----------8--------|
b|--9-----------9-----------9--------|
G|--8-----------8-----------8--------|
D|--10----------10----------10-------|
A|--11----------11----------11-------|
E|--8-----------8-----------8--------|

    Bbm7    Fm7     FaugaddG#  
    1 e + a 2 e + a 3 e + a 4 e + a
e|--6-------8------------------------|
b|--6-------9-------9-9--------------|
G|--6-------8-------6-6--------------|
D|--6-------10------7-7--------------|
A|--8-------8-------8-8--------------|
E|--6--------------------------------|
Suggest correction
Creating personal tab
Creating personal tab
You can edit any tab online and save it as your Personal.

You can edit, replace or remove any tab part or add personal notes – all changes will be seen only by you.

Personal tabs can be accessed anytime from any device, even offline.
Learn more »
Give kudos to tab author, rate the tab!
1 2 3 4 5
comments
print report bad tab
guest
You may want to rate the tab now too:
select rating
Wanna post a correction for this tab? Suggest correction