Oops, an error
Loading. Please wait.

Treasure Bass Tab

version 1
version 1

Whole song

Interactive

174,762 views 471 this week
6 commentsread comments
1 2 3 4 5
x 78
add to favorites
launch autoscroll
font size
0
reset
guitar tuner
Autoscroll
slow
fast
+/-
esc
set tempo
stop
Help us to improve Ultimate-Guitar.com Take our survey!
×
Author
Difficulty
intermediate
[Intro]

G|-----------------------------------------------------------|
D|-----------------------------------------------------------|
A|-----------------------------------------------------------|
E|-566666----------------------------------------------------|


[Main riff]

G|---------------------------------55------------------------|
D|--6--------33----------5-----------------------------------|
A|------------------------------3--------3h6p3---------------|
E|-4----4-3-1---1-1----3----3-6--------6-------6-------------|


[End of main riff]

G|-----------------------------------------------------------|
D|--6--------33----------------------------------------------|
A|----------------------------\13-13-13-13/------------------|
E|-4----4-3-1---1-1------\6666-------------------------------|



************************************

| h  Hammer-on
| p  Pull-off
| /  Slide up
| \  Slide down

************************************
Suggest correction
comments
print report bad tab
6 comments total. Showing first comments.
+9 reply
Guitarist_67 94 Jul 08, 2013 10:49 AM

Normally I hate Bruno Mars and his unimaginative lyrics, but I heard this funky bass line and couldn't resist. I'm pretty sure in the song the bassist is popping and slapping the notes though.

+4 reply
BenGriffiths 101 Jul 10, 2013 01:55 PM

Same here im liking some of the stuff off his new album, check out locked out of heaven, another good bassline. And yeah if you look up some youtube bass covers everybody slaps and pops.

0 reply
whales.harley 50 Nov 12, 2013 02:20 AM

would be nice to have a solo or something for the instrumental but overall pretty good

guest
You may want to rate the tab now too:
select rating
Wanna post a correction for this tab? Suggest correction