Oops, an error
Loading. Please wait.

Treasure bass

version 2
version 2

Whole song

Interactive

31,905 views 15 this week
5 commentsread comments
1 2 3 4 5
x 14
add to favorites
×
Save as Personal and add changes to this tab that will be seen only by you. Learn more ›
×
You can save this tab as Personal to edit and correct it or add notes. All changes will be seen only by you. Learn more »
launch autoscroll
font size
0
reset
guitar tuner
backing track
0:00
0:00
edit
Autoscroll
slow
fast
+/-
esc
set tempo
stop
Author
Difficulty
-------------------------------------------------------------------------------
                                Treasure - Bruno Mars
-------------------------------------------------------------------------------
Tabbed by: Chris
E-mail: Theebloodninja@hotmail.co.uk

Tuning: Standard (EADG)


Intro: (0:02-0:04)
G|---------------------------------------------------------------------------|
D|---------------------------------------------------------------------------|
A|---------------------------------------------------------------------------|
E|--66666-6------------------------------------------------------------------|


Verse: Play 3x
G|-------------------------------55------------------------------------------|
D|-----6-----33----------5---------------1-----------------------------------|
A|---------------------------1-3------1~3-31---------------------------------|
E|---4---431-----1-1--/3---3-------------------------------------------------|

  Play once (after the third)
G|---------------------------------------------------------------------------|
D|----6-----33---------------------------------------------------------------|
A|---------------------------------------------------------------------------|
E|--4---431----1-1--/6-6-66-6--15-15-15-15-1515-15---------------------------|


Chorus: Play 3x
G|-------------------------------55------------------------------------------|
D|-----6------33---------5----------------1----------------------------------|
A|----------------------------1-3------1~3-31--------------------------------|
E|---4---431-----1-1--/3----3------------------------------------------------|

(Play at end of the third)
G|---------------------------------------------------------------------------|
D|----6----33-------------------88-88-88-88-8--------------------------------|
A|---------------------------------------------------------------------------|
E|--4---431----1-1--/66666666------------------------------------------------|


Repeat Verse and Chorus till the end of the song


| /  slide up
| \  slide down
| h  hammer-on
| p  pull-off
| ~  vibrato
| +  harmonic
| x  Mute note
===============================================================================
Suggest correction
Creating personal tab
Creating personal tab
You can edit any tab online and save it as your Personal.

You can edit, replace or remove any tab part or add personal notes – all changes will be seen only by you.

Personal tabs can be accessed anytime from any device, even offline.
Learn more »
comments
print report bad tab
5 comments total. Showing first comments.
0 reply
Rule Britannia 223 Sep 19, 2013 02:31 PM

Play once (after the third)
G|---------------------------------------------------------------------------|
D|----6-----33---------------------------------------------------------------|
A|---------------------------------------------------------------------------|
E|--4---431----1-1--/6-6-66-6--16-16-16-16-1616-16---------------------------|


(Play at end of the third)
G|------------------------------------------------------------------------------|
D|----6----33------------------88-88-88-88-8------------------------------------|
A|------------------------------------------------------------------------------|
E|--4---431----1-1--/66666666---------------------------------------------------|

0 reply
mcdjole 21 Apr 06, 2014 07:47 AM

Great work, nice tab :)

guest
You may want to rate the tab now too:
select rating
Wanna post a correction for this tab? Suggest correction